PrimaNota.ru - самый крупный в мире бесплатный архив песенных текстов, аккордов, табулатур и нот


Isobel Campbell & Mark Lanegan - Its Hard To Kill A Bad Thing - таба, видео

Регистрация Запомнить меня
Войти через:  Facebook Google Twitter Vk Yandex Mail.ru

Isobel Campbell & Mark Lanegan - Its Hard To Kill A Bad Thing - таба, видео

Печатать
Просмотров: 40
-------------------------------------------------------------------------------
                              Isobel Campbell And Mark Lanegan - it's hard to kill a bad thing
-------------------------------------------------------------------------------
Album : Ballad Of The Broken Seas (2006)
Tempo : 110
E-mail: gwendal.mollo@orange.fr
Tabbed by: newg


     D#             D# sus4    A#             A# add9
E |-------------------------|--6--6--6--6-----8-------|
B |--8--8--8--8-----9-------|--6--6--6--6-----6-------|
G |--8--8--8--8-----8-------|--7--7--7--7-----7-------|
D |--8--8--8--8-----8-------|--8--8--8--8-----8-------|
A |--6--6--6--6-----6-------|--8--8--8--8-----8-------|
E |-------------------------|--6--6--6--6-----6-------|

  Ab            G# add9    D#
--4--------4--4--6-------|-------|
--4--------4--4--4-------|--8----|
--5--------5--5--5-------|--8----|
--6--------6--6--6-------|--8----|
--6--------6--6--6-------|--6----|
--4--------4--4--4-------|-------|  Main Riff


  A#
--6-----------------------6-------------------------|
--6-----------------------6-------------------------|
--7-----------------------7-------------------------|
--8-----------------------8-------------------------|
--8-----------------------8-----------6--8--6-------|
--6-----------------------6-----6--8----------------|

  A#                                                  A#
--6-----------------------6-------------------------|--6----|
--6-----------------------6-------------------------|--6----|
--7-----------------------7-------------------------|--7----|
--8-----------------------8-------------------------|--8----|
--8-----------------------8-----------6-------------|--8----|
--6-----------------------6-----6--8-----8--6-------|--6----|


Riff 
----------------||
--6--6--6--4----||
--8--7--5--3----||
--8--8----------||
----------------||
----------------||

Добавлено: 14.04.2016
Другие материалы по этой песне:
  • Аккорды и текст

Страница создана 14.04.2016
http://primanota.ru/isobel-campbell-and-mark-lanegan/its-hard-to-kill-a-bad-thing-chords.htm
Привет, Гость.
Предлагаем пройти революционный курс по гитаре.
Подарок от PrimaNota.Ru, забирай!