PrimaNota.ru - самый крупный в мире бесплатный архив песенных текстов, аккордов, табулатур и нот


Ismo Alanko - Unelmia Ja Valheita - таба, видео

Регистрация Запомнить меня
Войти через:  Facebook Google Twitter Vk Yandex Mail.ru

Ismo Alanko - Unelmia Ja Valheita - таба, видео

Печатать
Просмотров: 30
Unelmia Ja Valheita
by Ismo Alanko http://www.ismoalanko.com/
from the album "Ismo Kullervo Alanko" (2015)
Chords and tabs by TheIronicTea/RTV


RIFF X2 (Note: Slide on acoustic guitar, bend on electric) 

e|------------------------------------------------------------------------------------|
B|------------------------------------------------------------------------------------|
G|------------------------------------------------------------------------------------|
D|------------------------------------------------------------------------------------|
A|--7--777-----7--777-----7--777-----7-7/11-----7--777-----7--777-----7-7/11-----7/1--|
E|--0--000-9---0--000-9---0--000-9---0-0----9---0--000-9---0--000-9---0-0------9-0----|


VERSE

E
Ei lumen valoa, ei talvenkajoa
A                G#m
Vain nämä ihanat lääkkeet
E
Ahmimme tietoa, muutamme tapoja
A                G#m
Mut' emme kykene onneen
F#m             F#m/A        E         
Ja mä  yritän  syntyä  uudelleen   
   H
Uudelleen
F#m              F#m/A        E         
Joka päivä kun tulevaisuuden teen
   H
Uudelleen


BRIDGE

E                            C#m             G#m    H
Unelmamme   availevat     sylejänsä    raukeina
      E                      C#m             G#m    H
Ennen unelmoimme vapaudesta, autoista, matkoista
E                 C#m              G#m    H
Psykedeliasta, boheemista romantiikasta
E                            C#m             G#m      
Miksei kukaan kertonut et kaikella on hintansa?  
      H
Tai kertoi, mutta


CHORUS

A             C#m          G#m         
Emme uskoneet valheisiin         
     H
(Älä usko valheisiin)
E                     C#m            G#m                
Kun lanka paloi ja me nuoralla tanssittiin        
     H
(Älä usko valheisiin)
      A              E         D   H
Niin, emme uskoneet valheisiin


RIFF x1


VERSE

E
Nyt umpihangessa, märässä lumessa
A              G#m
Yritän tarpoa turvaan
E
Mutta nää askeleet, raskaat ja lyhyet
A                   G#m
ovat kuin kaunista harhaa
F#m           F#m/A       E         
Ja mä yritän syntyä uudelleen
H
Kevääseen 
F#m         F#m/A     E      
Vielä uskoskelen ihmiseen
H
Sitä yhä mä teen

Yhä mä teen

Yhä mä teen

Yhä mä teen


SOLO

    C#m        G#m        C#m        G#m     C#m              G#m           C#m               H
e|-----------------------------------------------------------------------------------------------|
B|--9---9-----------------9---9-9/10-9-------9-10-9-10-12-10-9-9------------9-10-9-10-12-10-9-7--|
G|--------11-9-8---6-8-9-------------------------------------------11-9-8------------------------|
D|-----------------------------------------------------------------------------------------------|
A|-----------------------------------------------------------------------------------------------|
E|-----------------------------------------------------------------------------------------------|


BRIDGE

E                            C#m             G#m    H
Unelmamme   availevat     sylejänsä    raukeina
      E                      C#m             G#m    H
Ennen unelmoimme vapaudesta, autoista, matkoista
E                 C#m              G#m    H
Psykedeliasta, boheemista romantiikasta
E                            C#m             G#m      
Miksei kukaan kertonut et kaikella on hintansa?  
      H
Tai kertoi, mutta


CHORUS

A             C#m          G#m         
Emme uskoneet valheisiin        
     H
(Älä usko valheisiin)
E                     C#m            G#m                
Kun lanka paloi ja me nuoralla tanssittiin      
     H
(Älä usko valheisiin)
      A              C#m          G#m    
Niin, emme uskoneet valheisiin
     H
(Älä usko valheisiin)
E                C#m         D   H
Me emme uskoneet valheisiin


RIFF x1
Добавлено: 15.06.2016
Другие материалы по этой песне:
  • Аккорды и текст

Страница создана 15.06.2016
http://primanota.ru/ismo-alanko/unelmia-ja-valheita-chords.htm
Привет, Гость.
Предлагаем пройти революционный курс по гитаре.
Подарок от PrimaNota.Ru, забирай!