PrimaNota.ru - самый крупный в мире бесплатный архив песенных текстов, аккордов, табулатур и нот


Ismo Alanko - Sauna - аккорды и текст, видео

Регистрация Запомнить меня
Войти через:  Facebook Google Twitter Vk Yandex Mail.ru

Ismo Alanko - Sauna - аккорды и текст, видео

Печатать
Просмотров: 39
Sauna
Ismo Alanko
Sauna
Ismo Alanko Teholla

Capo 1st fret

e|0---------------0---------------0---------------0---------------|
B|----0---3---0-------0---3---0-------0---3---0-------0---3---0---|
G|----------------------------------------------------------------|
D|0-----------2---0---------------0-----------2---0---------------|
A|------2---------------2---------------2---------------2---------|
E|----------------------------------------------------------------|
  Hee - ee -  e - ee -  ee        Hee - ee -  e - ee -  ee
e|0---------------0---------------0---------------0---------------| 2X
B|----0---3---0-------0---3---0-------0---3---0-------0---3---0---|
G|----------------------------------------------------------------|
D|------------0---------------------------------------------------|
A|2-----0---------2-----0-----2-----------------------------------|
E|--------------------------------3-----------0---3---------------|
  Hee - ee -  e - ee -  ee -  e - ee    -     e - ee     


B Bsus4 B Bsus4 Bbm

B Bsus4 B Bsus4 Bbm

                   B   Bsus4 B Bsus4 Bbm
Saunassa viha viilenee 
                     B   Bsus4 B Bsus4 Bbm
Harteilla taakka kevenee 
                    B   Bsus4 B Bsus4 Bbm
Kun arkihuolet ahdistaa 
                  B    Bsus4 B Bsus4 Bbm Bbm
Ihmisiksi riisuudutaan 

C                       C B  Bb A
 Pyhä sauna, siunattu sau-na 
                        A Bb B C
Pyhä sauna, muinainen sau-na 
                       C B  Bb A
Pyhä sauna, siunattu sau-na 
           A
Pyhä sauna oo

E
Jollain henki kirkossa kulkee
B
Toisen pilvi arjesta sulkee
C#m                           E     C
Meil' on sielun puhdistajaksi sauna 
E
En voi olla hiljentymättä
B
Hyiseen mereen heittäytymättä
C#m                           E     C    E     C C C
Löylyn jälkeen hymyilemättä - sauna  -   sauna 



e|0---------------0---------------0---------------0---------------|
B|----0---3---0-------0---3---0-------0---3---0-------0---3---0---|
G|----------------------------------------------------------------|
D|0-----------2---0---------------0-----------2---0---------------|
A|------2---------------2---------------2---------------2---------|
E|----------------------------------------------------------------|
  Hee - ee -  e - ee -  ee        Hee - ee -  e - ee -  ee
e|0---------------0---------------0---------------0---------------| 2X
B|----0---3---0-------0---3---0-------0---3---0-------0---3---0---|
G|----------------------------------------------------------------|
D|------------0---------------------------------------------------|
A|2-----0---------2-----0-----2-----------------------------------|
E|--------------------------------3-----------0---3---------------|
  Hee - ee -  e - ee -  ee -  e - ee    -     e - ee     


B Bsus4 B Bsus4 Bbm

                      B  Bsus4 B Bsus4 Bbm
Hiljaisuus meidät lumoaa 
                    B   Bsus4 B Bsus4 Bbm
Nurkista nousee tarinaa 
                       B   Bsus4 B Bsus4 Bbm
Hurjemmat loihtii helvetin 
                     B   Bsus4 B Bsus4 Bbm Bbm
Josta voi tulla takaisin 

C                       C B  Bb A
 Pyhä sauna, siunattu sau-na 
                        A Bb B C
Pyhä sauna, muinainen sau-na 
                       C B  Bb A
Pyhä sauna, siunattu sau-na 
           A
Pyhä sauna oo

E
Jollain henki kirkossa kulkee
B
Toisen pilvi arjesta sulkee
C#m                           E     C
Meil' on sielun puhdistajaksi sauna 
E
En voi olla hiljentymättä
B
Hyiseen mereen heittäytymättä
C#m                           E     C
Löylyn jälkeen hymyilemättä - sauna 

E
Jollain henki kirkossa kulkee
B
Toisen pilvi arjesta sulkee
C#m                           E     C
Meil' on sielun puhdistajaksi sauna 
E
En voi olla hiljentymättä
B
Hyiseen mereen heittäytymättä
C#m                           E     C    E     C    E     C C C
Löylyn jälkeen hymyilemättä - sauna  -   sauna  -   sauna 
Добавлено: 17.10.2015
Вам также может быть интересно:
Другие материалы по этой песне:
  • Аккорды и текст

Страница создана 17.10.2015
http://primanota.ru/ismo-alanko/sauna-chords.htm
Привет, Гость.
Предлагаем пройти революционный курс по гитаре.
Подарок от PrimaNota.Ru, забирай!