PrimaNota.ru - самый крупный в мире бесплатный архив песенных текстов, аккордов, табулатур и нот


Isley Brothers - Footsteps In The Dark - текст песни, таба, бас-таба, видео

Регистрация Запомнить меня
Войти через:  Facebook Google Twitter Vk Yandex Mail.ru

Isley Brothers - Footsteps In The Dark - текст песни, таба, бас-таба, видео

Печатать
Просмотров: 270
Уроки эстрадного вокала в Санкт-Петербурге
Авторы: Ernie Isley, O'Kelly Isley, Jr., Rudolph Isley, Ronald Isley, Marvin Isley, Chris Jasper

The Isley Brothers
Footsteps In The Dark (Intro)
Go For Your Guns (1977)



e--7--------7h9--7--------------------------------------|
b--7----7----------7------10h12---10----9h10---9---10---|
g--7------7----------7----9-------9-----9------9---11---|
d-------------------------11------11----9h11---9---11---|
a-------------------------------------------------------|
e-------------------------------------------------------|

e--2-------4-----7--------7h9--7---------------------------------------|
b--2-------5-----7----7----------7------10h12----10----9h10---9---10---|
g--2-------4-----7------7----------7----9--------9-----9------9---11---|
d--2-------6----------------------------11-------11----9h11---9---11---|
a--4-------4-----------------------------------------------------------|
e----------------------------------------------------------------------|
Добавлено: 18.06.2012
Другие материалы по этой песне:

Страница создана 28.02.2012
http://primanota.ru/isley-brothers/footsteps-in-the-dark-chords.htm
Привет, Гость.
Предлагаем пройти революционный курс по гитаре.
Подарок от PrimaNota.Ru, забирай!