PrimaNota.ru - самый крупный в мире бесплатный архив песенных текстов, аккордов, табулатур и нот


Isley Brothers - Everybody Gonna Rock And Roll - бас-таба, видео

Регистрация Запомнить меня
Войти через:  Facebook Google Twitter Vk Yandex Mail.ru

Isley Brothers - Everybody Gonna Rock And Roll - бас-таба, видео

Печатать
Просмотров: 114
Уроки эстрадного вокала в Санкт-Петербурге
Everybody Gonna Rock and Roll
Pre Motown release by The Isley Brothers in the very early sixties
Tab by bass50611. Welcome to my tab and not exact but what a great
Track. Rock n Roll at its best Slight pauses on the root notes in both
Verse 1 & 2 also Chorus 1.  Comments at bass254@btinternet.com

Intro:    (Play Crochets)
G|---------------------------------|
D|---------------------------------|
A|-8-8-8-8-8-8-8-8-----------------|
E|-----------------8-8-8-8-8-8-8-8-|

Verse:
G|-------------------------10-7-----------------------------10-7-----|
D|----7-10----7-10----7-10-----10-7----7-10----7-10----7-10-----10-7-|
A|-8-------8-------8----------------8-------8-------8----------------|
E|-------------------------------------------------------------------|

G|-------------------------------------------------------10-7-----|
D|-----------------------8-5---------7-10----7-10----7-10----10-7-|
A|----5-8-----5-8-----5-8---8-5---8-------8-------8---------------|
E|-6-------6-------6----------------------------------------------|

Chorus 1:
G|--------------------------------------------------------10-7-----|
D|------------------------------------7-10----7-10----7-10----10-7-|
A|----7-10----5-8----7-10----5-8---8-------8-------8---------------|
E|-8-------6------8-------6----------------------------------------|

Repeat Verse And Chorus 1:

Sax Solo:    (Fast Walking Bass)
G|--10-7---------7-10-7---------7---------------------7-10-7-----|
D|------10-7-7-10------10-7-7-10-------5-----5----7-10------10-7-|
A|----------8--------------8--------5-8---5-8----8---------------|
E|---------------------------------6-----6-----------------------|

G|-----------------------------7-10-7-----|
D|-10-10-10-10---8-8-8-8---7-10------10-7-|
A|------------------------8---------------|
E|----------------------------------------|

Last Verse:     (Walking Bass)
G|------7-------7-------7-10-7-----------7-------7-------7-10-7-----|
D|--7-10----7-10----7-10------10-7---7-10----7-10----7-10------10-7-|
A|-8-------8-------8----------------8-------8-------8---------------|
E|------------------------------------------------------------------|

G|-----------------------------------7-------7-------7-10-7-----|
D|-----5------5------5-8-5-------7-10----7-10----7-10------10-7-|
A|--5-8----5-8----5-8-----8-5---8-------8-------8---------------|
E|-6------6------6----------------------------------------------|

Last Chorus:     (Walking Bass)                          (Track Fades)
G|-------------------------------------7-------7-------7-10-7-----|
D|------7------5-------7------5----7-10----7-10----7-10------10-7-|
A|--7-10----5-8----7-10----5-8----8-------8-------8---------------|
E|-8-------6------8-------6---------------------------------------|
Добавлено: 08.11.2015
Вам также может быть интересно:
Другие материалы по этой песне:
  • Аккорды и текст

Страница создана 08.11.2015
http://primanota.ru/isley-brothers/everybody-gonna-rock-and-roll-chords.htm
Привет, Гость.
Предлагаем пройти революционный курс по гитаре.
Подарок от PrimaNota.Ru, забирай!