PrimaNota.ru - самый крупный в мире бесплатный архив песенных текстов, аккордов, табулатур и нот


Isley Brothers - Between The Sheets - текст песни, таба, бас-таба, видео

Регистрация Запомнить меня
Войти через:  Facebook Google Twitter Vk Yandex Mail.ru

Isley Brothers - Between The Sheets - текст песни, таба, бас-таба, видео

Печатать
Просмотров: 281
Уроки эстрадного вокала в Санкт-Петербурге
Авторы: Ernie Isley, O'Kelly Isley, Jr., Rudolph Isley, Ronald Isley, Marvin Isley, Chris Jasper




Date: Sun, 5 Mar 2006 18:25:33 -0500 (EST)
From: Matt Carmell 
Subject: i/isley_brothers/between_the_sheets.tab

Between the Sheets 
By:  The Isley Brothers


Tablature by: Matt Carmell

s: slide

Here are the verse and bridge guitar parts from the 
Isley Brothers' Between the sheets.  There is some 
ambiguity in the chord naming, but the shapes should 
be correct.  I do not give the strumming patterns, 
but they are easy to figure out by listening to the 
tune.  I approximate the riff that ends the verse and 
bridge by using octaves.  In the recording, it sounds 
like a synthesized sitar is used.

+++++++++++++
   VERSE
+++++++++++++

     Am7   E7b9        Cmaj7  Gm7 B7b9
e:------------------|------------------|
B:----5------6------|---5------3---1---|
G:----5------7------|---4------3---2---|   
D:----5------6------|---5------3---1---|   
A:----x------7------|---3------x---2---|
E:----5-------------|----------3-------|

      Hey Girl ain't no mystery...



     Am7   E7b9        Cmaj7  Gm7 B7b9 
e:------------------|------------------|
B:----5------6------|---5------3---1---|
G:----5------7------|---4------3---2---|   
D:----5------6------|---5------3---1---|   
A:----x------7------|---3------x---2---|
E:----5-------------|----------3-------|



     Gm7   E7b9        Cmaj7  Gm7 B7b9
e:------------------|------------------|
B:----3------6------|---5------3---1---|
G:----3------7------|---4------3---2---|   
D:----3------6------|---5------3---1---|      
A:----x------7------|---3------x---2---|
E:----3-------------|----------3-------|


     Gm7   E7b9        
e:------------------|--7-s-5-s-7----8--10-|--7-s-5-s-7-------|
B:----3------6------|---------------------|------------------|
G:----3------7------|---------------------|------------------|
D:----3------6------|--9-s-7-s-9----10-12-|--9-s-7-s-9-------|    
A:----x------7------|---------------------|------------------|
E:----3-------------|---------------------|------------------|


++++++++++++++++
 CHORUS/BRIDGE
++++++++++++++++

							   
     Dm7   E7b9        Cmaj7   Am7        Gm7   B7b9       Am7  Cmaj7
e:------------------|------------------|-----------------|-------------|
B:----6------6------|---5------5-------|---3------1------|--5-----5----|
G:----5------7------|---4------5-------|---3------2------|--5-----4----|
D:----7------6------|---5------5-------|---3------1------|--5-----5----|
A:----5------7------|---3------x-------|---x------2------|--x-----3----|
E:------------------|----------5-------|---3-------------|--5----------|

							   
     Dm7   E7b9        Cmaj7   Am7        Gm7   E7b9      
e:------------------|------------------|-----------------|
B:----6------6------|---5------5-------|---3------6------|
G:----5------7------|---4------5-------|---3------7------|
D:----7------6------|---5------5-------|---3------6------|
A:----5------7------|---3------x-------|---x------7------|
E:------------------|----------5-------|---3-------------|


e:--7--5--7----8--10-|--7--5--7-------|
B:-------------------|----------------|
G:-------------------|----------------|
D:--9--7--9----10-12-|--9--7--9-------|    
A:-------------------|----------------|
E:-------------------|----------------|


Добавлено: 14.09.2013
Другие материалы по этой песне:

Страница создана 14.04.2012
http://primanota.ru/isley-brothers/between-the-sheets-chords.htm
Привет, Гость.
Предлагаем пройти революционный курс по гитаре.
Подарок от PrimaNota.Ru, забирай!