PrimaNota.ru - самый крупный в мире бесплатный архив песенных текстов, аккордов, табулатур и нот


Islands - Well Do It So You Dont Have To - таба, видео

Регистрация Запомнить меня
Войти через:  Facebook Google Twitter Vk Yandex Mail.ru

Islands - Well Do It So You Dont Have To - таба, видео

Печатать
Просмотров: 101
Уроки эстрадного вокала в Санкт-Петербурге
(/) Slide Up  (\) Slide Down  (h) Hammer On  (p) Pull Off  (b) Bend (r) Release (v) Vibrato


E|------------------------------------------------------------------|
B|-----------8--------------7--------------9--7------6--------6-----|
G|--------------8--------------8-----------------------7------------|
D|-----5--------------7--------------8-----------8--------8---------|
A|--6-----6--------6-----6--------9-----9---------------------------|
E|--------------------------------------------------6---------------|



E|-------------------------------------------------------------------------|
B|----------------------------7--------------------9--7-----------------6--|
G|-------------12------12--------8-----8--------------------------7--------|
D|------8------------------------------------8-----------8-----------8-----|
A|--10-----10------10------6--------6-----9-----9-----------9--------------|
E|-------------------------------------------------------------6-----------|



E|--3--6--2--6--2--6--3--6--3--3--3--6--2--6--3--6--2--6--2--6--1--|
B|--3--8--2--6--2--6--3--8--3--4--3--8--2--6--3--8--2--6--2--6--1--|
G|--3--8--3--6--3--6--3--8--3--5--3--8--3--7--3--8--3--7--3--7--1--|
D|--5--8--4--7--4--7--4--8--4--5--5--8--4--8--5--8--4--8--4--8--2--|
A|--5--6--4--7--4--7--4--6--4--3--5--6--4--8--5--6--4--8--4--8--2--|
E|--3-----2--6--2--6--3-----3-----3-----2--6--3-----2--6--2--6--1--|
                                                        http://www.guitartabcreator.com
Добавлено: 08.08.2013
Другие материалы по этой песне:
  • Аккорды и текст

Страница создана 08.08.2013
http://primanota.ru/islands/well-do-it-so-you-dont-have-to-chords.htm
Привет, Гость.
Предлагаем пройти революционный курс по гитаре.
Подарок от PrimaNota.Ru, забирай!