PrimaNota.ru - самый крупный в мире бесплатный архив песенных текстов, аккордов, табулатур и нот


Islander - Coconut Dracula - таба, видео

Регистрация Запомнить меня
Войти через:  Facebook Google Twitter Vk Yandex Mail.ru

Islander - Coconut Dracula - таба, видео

Печатать
Просмотров: 136
Уроки эстрадного вокала в Санкт-Петербурге
Авторы: Eric Frazier, Andrew Murphy, Mikey Carvajal, Chris Doot

Islander: Coconut Dracula

Transcribed by: mysticguitar77

Facebook: https://www.facebook.com/MysticGuitar77
YouTube Channel: https://www.youtube.com/user/MysticGuitar77

Date last modified: April 22, 2015

Tuning: Drop B (B,F#,B,E,G#,C#)

Riff 1
C#|------------------|
G#|------------------|
 E|-7'----------/19'-|
 B|-x------------x---| ' = tremolo pick
F#|-5'----------/17'-|
 B|------------------|

Riff 2 (light distortion w/ sweep echo effect, finger-picked)   "You don't see the world like I do..."
C#|-13-------13---12-------12-------12---10------|
G#|--------------------15---------------------13-|
 E|----------------------------------------------|
 B|-12-------12------------10-------10-----------| x2
F#|----------------------------------------------|
 B|----------------------------------------------|

       "I don't feel used when I'm with you..."
C#|--------------------------------------|
G#|-6-------6---5------5-------5---------|
 E|-7-------7-------7--5-------5---7---5-|
 B|--------------------------------------|
F#|--------------------------------------|
 B|--------------------------------------|

Riff 3   "You're not out for blood, you only want what's beautiful..." (all taped)
C#|-13p8-13p8-12/13p8-12/13p8-13p8-12/13\12p8-|
G#|-------------------------------------------|
 E|-------------------------------------------|
 B|-------------------------------------------| x2
F#|-------------------------------------------|
 B|-------------------------------------------|

C#|-12p8p5h8-12p8-12p8p8p5h8-12p8-12p8p5h8-15p8p5h8-15p8p5h8-17p8p5h8-17p8p5h8-|
G#|----------------------------------------------------------------------------|
 E|----------------------------------------------------------------------------|
 B|----------------------------------------------------------------------------|
F#|----------------------------------------------------------------------------|
 B|----------------------------------------------------------------------------|

Play Riff 3 x1.5   "You're not out for blood..."

Riff 4
C#|--------------------------------------------------------|
G#|--------------------------------------------------------|
 E|--------------------------------------------------------|
 B|-7--7--7--7--7--7--7--7---------------------------------|
F#|-7--7--7--7--7--7--7--7---------------------------------|
 B|-7--7--7--7--7--7--7--7-3-3-3-3-3-3-3-3-2-2-2-2-2-2-2-2-|
       *  *  *  *  *  *  *   * * * * * * *   * *   *

Riff 5   "I wanna be someone more like you..."
C#|------------------------------------------------------------------------------|
G#|---------------------------------/11-11-11-11-11-11-11-11-10-10-10-10-8-8-8-8-|
 E|----------------------------------x--x--x--x--x--x--x--x--x--x--x--x--x-x-x-x-|
 B|-8-8-8-8-8-8-8-8-8-8-8-8-8-8-8-8-/8--8--8--8--8--8--8--8--7--7--7--7--5-5-5-5-|
F#|-8-8-8-8-8-8-8-8-8-8-8-8-8-8-8-8----------------------------------------------|
 B|-8-8-8-8-8-8-8-8-8-8-8-8-8-8-8-8----------------------------------------------|

C#|--------------------------------------------------------------------------------------|
G#|--------------------------------------------------------------------------------------|
 E|-10-10-10-10-10-10-10-10-10-10-10-10-10-10-10-10--------------------------------------|
 B|-x--x--x--x--x--x--x--x--x--x--x--x--x--x--x--x---------------------------------------|
F#|-8--8--8--8--8--8--8--8--8--8--8--8--8--8--8--8---------------------------------------|
 B|-0--0--0--0--0--0--0--0--0--0--0--0--0--0--0--0--0-0-0-0-2-2-2-2-3-3-3-3-/10-10-10-10-|

C#|------------------------------------------------------------------------------|
G#|---------------------------------/11-11-11-11-11-11-11-11-10-10-10-10-8-8-8-8-|
 E|----------------------------------x--x--x--x--x--x--x--x--x--x--x--x--x-x-x-x-|
 B|-8-8-8-8-8-8-8-8-8-8-8-8-8-8-8-8-/8--8--8--8--8--8--8--8--7--7--7--7--5-5-5-5-|
F#|-8-8-8-8-8-8-8-8-8-8-8-8-8-8-8-8----------------------------------------------|
 B|-8-8-8-8-8-8-8-8-8-8-8-8-8-8-8-8----------------------------------------------|

C#|----------------------------------------------------------------------------------|
G#|----------------------------------------------------------------------------------|
 E|----------------------------------------------------------------------------------|
 B|-3-3-3-3-3-3-3-3-3-3-3-3-3-3-3-3-/10-10-10-10-10-10-10-10-10-10-10-10-10-10-10-10-|
F#|-3-3-3-3-3-3-3-3-3-3-3-3-3-3-3-3-/10-10-10-10-10-10-10-10-10-10-10-10-10-10-10-10-|
 B|-3-3-3-3-3-3-3-3-3-3-3-3-3-3-3-3-/10-10-10-10-10-10-10-10-10-10-10-10-10-10-10-10-|

Play Riff 2 x1   "I want my eyes to be like yours..."
Play Riff 3 x1.5 "You're not out for blood..."
Play Riff 4 x1
Play Riff 5 x1   "I wanna be someone more like you..."

Riff 6   "I need you to teach me, teach me..." 
C#|-----------------------------------------------------------------------------------------------------------|
G#|-----------------------------------------------------------------------------------------------------------|
 E|-----------------------------------------------------------------------------------------------------------|
 B|-----------------------------------------------------------------------------------------------------------|
F#|-----------------------------------------------------------------------------------------------------------|
 B|-0--0--0--0---0--0----0--0--0--0---0--0--12-0-7-0-3-7-0-8-0-7-0-3-7-0-3-0-12-0-7-0-3-7-0-8-0-7-0-3-7-0-3-0-|

Play Riff 6 x2   "...what you know..."

Riff 7   "Is this what it's like to see through your eyes..."
C#|---------------------------------------------------------------------------------|
G#|---------------------------------------------------------------------------------|
 E|-10-10-10-10-10-10-10-10-9-9-9-9-9-9-9-9-10-10-10-10-10-10-10-10-9-9-9-9-9-9-9-9-|
 B|-8--8--8--8--8--8--8--8--8-8-8-8-8-8-8-8-x--x--x--x--x--x--x--x--x-x-x-x-x-x-x-x-|
F#|-8--8--8--8--8--8--8--8--8-8-8-8-8-8-8-8-8--8--8--8--8--8--8--8--7-7-7-7-7-7-7-7-|
 B|-8--8--8--8--8--8--8--8--8-8-8-8-8-8-8-8-0--0--0--0--0--0--0--0--0-0-0-0-0-0-0-0-|

C#|--------------------------------------------------------------------------------|
G#|--------------------------------------------------------------------------------|
 E|-10-10-10-10-10-10-10-10-9-9-9-9-9-9-9-9----------------------------------------|
 B|-8--8--8--8--8--8--8--8--8-8-8-8-8-8-8-8-----12-----------10------8---------7---|
F#|-8--8--8--8--8--8--8--8--8-8-8-8-8-8-8-8----------------------------------------|
 B|-8--8--8--8--8--8--8--8--8-8-8-8-8-8-8-8-/12----0-10-12-0----0-/8---0-5-7-0---0-|

C#|---------------------------------------------------------------------------------|
G#|---------------------------------------------------------------------------------|
 E|-10-10-10-10-10-10-10-10-9-9-9-9-9-9-9-9-10-10-10-10-10-10-10-10-9-9-9-9-9-9-9-9-|
 B|-8--8--8--8--8--8--8--8--8-8-8-8-8-8-8-8-x--x--x--x--x--x--x--x--x-x-x-x-x-x-x-x-|
F#|-8--8--8--8--8--8--8--8--8-8-8-8-8-8-8-8-8--8--8--8--8--8--8--8--7-7-7-7-7-7-7-7-|
 B|-8--8--8--8--8--8--8--8--8-8-8-8-8-8-8-8-0--0--0--0--0--0--0--0--0-0-0-0-0-0-0-0-|

C#|----------------------------------------------------------------------------|
G#|----------------------------------------------------------------------------|
 E|-10-10-10-10-10-10-10-10-9-9-9-9-9-9-9-9------------------------------------|
 B|-8--8--8--8--8--8--8--8--8-8-8-8-8-8-8-8-7-7-7-7-7-7-7-7-\\\----------------|
F#|-8--8--8--8--8--8--8--8--8-8-8-8-8-8-8-8-7-7-7-7-7-7-7-7-\\\-pickslide-down-|
 B|-8--8--8--8--8--8--8--8--8-8-8-8-8-8-8-8-7-7-7-7-7-7-7-7-\\\----------------|
                                              * * * * * * *

Play Riff 5 x1   "I wanna be someone more like you..."

Ending   "Coconut dracula..."
C#|--------------------------|
G#|--------------------------|
 E|-10~----------------------|
 B|-x------------------------|
F#|-8~-----------------------|
 B|-0~-----------------------|

Enjoy!!





Добавлено: 28.12.2015
Другие материалы по этой песне:
  • Аккорды и текст

Страница создана 28.12.2015
http://primanota.ru/islander/coconut-dracula-chords.htm
Привет, Гость.
Предлагаем пройти революционный курс по гитаре.
Подарок от PrimaNota.Ru, забирай!