PrimaNota.ru - самый крупный в мире бесплатный архив песенных текстов, аккордов, табулатур и нот


Isis - From Sinking - текст песни, бас-таба, видео

Регистрация Запомнить меня
Войти через:  Facebook Google Twitter Vk Yandex Mail.ru

Isis - From Sinking - текст песни, бас-таба, видео

Печатать
Просмотров: 165
Авторы: Bryant Clifford Meyer, Jeff Caxide, Mike Gallagher, Aaron Turner, Aaron Harris

From Sinking
Isis
Oceanic

Drop B

0:00
|-----------------------|
|-----------------------|
|-----------------------|
|-4-4-0-0-0-0-5-5-5-5-0-|x1

|-----------------------------------------|
|-----------------------------------------|
|-----------------------------------------|
|-0--77---00-77-00-77-0-4-4-0-0-8-8-7-7-0-|x3

|----------------------------------------|
|----------------------------------------|
|------------33--22--------33-22-00-22---|
|-0--77---00------------00-------------0-|x1

0:30
|-----------------------|
|-----------------------|
|-----------------------|
|-4-4-0-0-0-0-8-8-7-7-0-|x1

|-----------------------------------------|
|-----------------------------------------|
|-----------------------------------------|
|-0--77---00-77-00-77-0-4-4-0-0-8-8-7-7-0-|x3

|----------------------------------------|
|----------------------------------------|
|------------33--22--------33-22-00-22---|
|-0--77---00------------00-------------0-|x1

1:30
|-------------------|
|-------------------|
|-0-3-0-3-0-3-0-----|
|---------------0-0-|x1

|-----------------------|
|-----------------------|
|-0-3-0-3-0-3-0-2-0-----|
|-------------------0-0-|x2

|--------------------------------------|
|--------------------------------------|
|-0h5-0h3----55-33----55-33----55-33---|
|-----------------0000---------------0-|x1

1:50
|-------------------|
|-------------------|
|-0-3-0-3-0-3-0-----|
|---------------0-0-|x1

|-----------------------|
|-----------------------|
|-0-3-0-3-0-3-0-2-0-----|
|-------------------0-0-|x2

|--------------------------------------|
|--------------------------------------|
|-0h5-0h3----55-33----55-33----55-33---|
|-----------------0000---------------0-|x1

2:10
|--------------------------------------------------------|
|-------3-------3-------2-------2------------------------|
|------0-------0-------0-------0-------------------------|
|-00-00---00-00---00-00---00-00---00-00-7/10--00-00-7/10-|

Riff above continued
|-------------------|
|-------------------|
|-------------8888--|
|-7777775-8888----8-|x2

2:43
|---------------------------|
|---------------------------|
|---------------88-10-10-10-|
|-7777777/10-10-------------|x2

|------------------------|
|------------------------|
|------------------------|
|-7777777777777-10-10-10-|x1

|------------------------------|
|------------------------------|
|------------------------------|
|-7777777777-10-10-10-10-10-10-|x1

3:00
|--------------------------------------------------------|
|-------3-------3-------2-------2------------------------|
|------0-------0-------0-------0-------------------------|
|-00-00---00-00---00-00---00-00---00-00-7/10--00-00-7/10-|

Riff above continued
|-------------------|
|-------------------|
|-------------8888--|
|-7777775-8888----8-|x2

3:33
|---------------------------|
|---------------------------|
|---------------88-10-10-10-|
|-7777777/10-10-------------|x2

|------------------------|
|------------------------|
|------------------------|
|-7777777777777-10-10-10-|x1

|------------------------------|
|------------------------------|
|------------------------------|
|-7777777777-10-10-10-10-10-10-|x1

3:50
|-----------------------------------------|
|-----------------------------------------|
|-----------------------------------------|
|-33333-000-33333-000-22222-000-22222-000-|

Riff above continued
|-----------------------------------------|
|-----------------------------------------|
|-33333-----33333-----00000-----11111-----|
|-------000-------000-------000-------000-|x2

4:23
|--------------------------------|
|--------------------------------|
|-------------/3----30----01-----|
|-3----32----2-------------------|x2

-Just guitar-

5:30
|--------------------------------------------------------|
|-----------------------------------------------------/7-|
|-------------------------------------------------0------|
|-3-3-3-3-3-3-3-3-2-2-2-2-2-2-2-3-0-0-0-0-0-0-3-2--------|x2

6:22
|---------------------------------------|
|---------------------------------------|
|------------------------------55555555-|
|-55555555-3333333333-22222222----------|x4

6:55
|------------------------------------|
|------------------------------------|
|-000000000000--0--------------------|
|-------------32---6666320--5555320--|x2

7:12
|---------------------------------------|
|---------------------------------------|
|------------------------------55555555-|
|-55555555-3333333333-22222222----------|x2

7:28
|------------------------------------|
|------------------------------------|
|-000000000000--0--------------------|
|-------------32---6666320--5555320--|x2

7:44
|------------------|
|------------------|
|------------------|
|-3333333333333333-|x4

8:01
|------------------|
|------------------|
|------------------|
|-0222222202222222-|x2

8:09
|-------------------|
|-------------------|
|-/7777777777777777-|
|-------------------|x2
Добавлено: 06.04.2012
Другие материалы по этой песне:

Страница создана 06.04.2012
http://primanota.ru/isis/from-sinking-chords.htm
Привет, Гость.
Предлагаем пройти революционный курс по гитаре.
Подарок от PrimaNota.Ru, забирай!