PrimaNota.ru - самый крупный в мире бесплатный архив песенных текстов, аккордов, табулатур и нот


Isbells - Maybe - таба, видео

Регистрация Запомнить меня
Войти через:  Facebook Google Twitter Vk Yandex Mail.ru

Isbells - Maybe - таба, видео

Печатать
Просмотров: 172
This hasn't been uploaded anywhere else yet, so I thought I may as well post what 
I have sussed so far.
*********************************************************************************

Maybe by Isbells, from their self titled debut album.
www.isbells.be

Tuning: Half-Step Down (Eb Ab Db Gb Bb eb)

3/4 Time signature

The main melody from the intro is played throughout most of the song.

Eb|-------------|-------------|-------------|-------------|
Bb|-------------|-------------|-------------|-------------|
Gb|-------------|-------------|-------------|-------------|
Db|---4-----4---|---4-----4---|---4-----4---|---4----4----|
Ab|-----2-----2-|-----2-----2-|-----2-----2-|-----2----2--|
Eb|4------4-----|0------0-----|2------2-----|2------2-----|

A ukelele enters at approximately 0:30 in the song and plays something similar to this.
It is repeated at each bridge like interval in the song.
Fiddle around with variations in the same key and find something that suits.

Eb|-7h9---9-----|
Bb|-----9---9---|
Gb|-------------|
Db|-------------|
Ab|-------------|
Eb|-------------|

For the chorus, the main melody is played but can only be heard faintly.

At the end of the song a simple variation of the main melody is played.

Eb|-------------|-------------|-------------|-------------|-------------|-------------|----------|
Bb|-------------|-------------|-------------|-------------|-------------|-------------|----------|
Gb|-------------|-------------|-------------|-------------|-------------|-------------|----------|
Db|---4------4--|---4-----4---|---4------4--|---4------4--|---4------4--|---4-----4---|----------|
Ab|---2------2--|---2-----2---|---2------2--|---2------2--|---2------2--|---2-----2---|----------|
Eb|4------4-----|0-----0------|2------2-----|2------2-----|4------4-----|0-----0------|2~--------|

~ Sustain the "F" or "2" on the low Eb string during the final bar for 4 bars.

*********************************************************************************
Добавлено: 31.10.2013
Другие материалы по этой песне:

Страница создана 19.04.2012
http://primanota.ru/isbells/maybe-chords.htm
Привет, Гость.
Предлагаем пройти революционный курс по гитаре.
Подарок от PrimaNota.Ru, забирай!