PrimaNota.ru - самый крупный в мире бесплатный архив песенных текстов, аккордов, табулатур и нот


Isbells - Baskin - таба, видео

Регистрация Запомнить меня
Войти через:  Facebook Google Twitter Vk Yandex Mail.ru

Isbells - Baskin - таба, видео

Печатать
Просмотров: 93
Isbells - Basking
Great song; just discovered it and wanted to share it with you, have fun!
Source: youtube.com/watch?v=XutKNCFq8nM

Sorry couldn't find the lyrics.
Critics and stuff; please comment or email (bobins12@yahoo.de).


Tuning: Standard

Capo 5th fret (!) try to play it legato.

 Riff I (repeat as often you want):
Part I                 Part II
E|---------|           E|---------|
B|---------|           B|---------|
G|----0-0--|           G|----0-0--|
D|---0-2--0| x8 then   D|---0-2--0| x2
A|---------|           A|-3-------|
E|-3-------|           E|---------|

Riff II

when he sings (at like 0:55)
"cause life's to short, for when we get old, it would..."

E|------------------------------------|
B|------------------------------------|
G|----0-0-------0-0-------0-0----0-2--|
D|---0-2-------0-2-------0-2----0-----|
A|------------------------------------|
E|-3---------3---------3-------3------|

Bridge (i suppose; part at 1:20):
                        "this is what you need.."
E|----|----|---------|-------------------------|
B|-3--|0---|-1--0--3-|--1-------------------3--|
G|-2--|0---|-0--0--2-|°-0-------------------2-°|
D|----|----|---------|-------------------------|
A|----|----|-3--2--0-|°-3-------------------0-°|
E|-2--|3---|---------|-------------------------|

After that it's basically Riff 2 (not quite but it's very easy to figure out the 
differences), in the end - after the banjo-
one last time Riff 1. (but Part I just 4 times not 8)
Добавлено: 31.10.2013
Другие материалы по этой песне:
  • Аккорды и текст

Страница создана 31.10.2013
http://primanota.ru/isbells/baskin-chords.htm
Привет, Гость.
Предлагаем пройти революционный курс по гитаре.
Подарок от PrimaNota.Ru, забирай!