PrimaNota.ru - самый крупный в мире бесплатный архив песенных текстов, аккордов, табулатур и нот


Исаак Албенис - Арабская серенада - аккорды и текст, видео

Регистрация Запомнить меня
Войти через:  Facebook Google Twitter Vk Yandex Mail.ru

Исаак Албенис - Арабская серенада - аккорды и текст, видео

Печатать
Просмотров: 180
Арабская серенада
Исаак Албенис
E|-0-----------------|-0-----------------|-0--------------|
B|-------------------|-------------------|----------------|
G|---4-2-0-2---------|---4-2-0-2---------|---4-2-0-2------|
D|--------------3----|--------------3----|--------------3-|
A|---------3---------|---------3---------|---------3------|
E|-0-----------------|-0-----------------|-0--------------|

E|-0-----------------|-0---2--3---2---3--5---5---3--2-|
B|-------------------|--------------------------------|
G|---4-2-0-2---------|--------------------------------|
D|--------------3----|-2----------1----------4--------|
A|---------3---------|--------------------------------|
E|-0-----------------|--------------------------------|

E|-3---2--3---0------0---2---0--2-|----------0-----0--2--1--2-|
B|-0----------1---4------1--------|-4--3--4--0--4-----1-------|
G|--------------------------------|-2-------------------------|
D|-2------------------------------|---------------------------|
A|------------3----------0--------|-2-----------------0-------|
E|--------------------------------|----------3----------------|

E|---------------------------------|-0-----------|-0-----------|
B|-0------0---5-----------4--------|-------------|-------------|
G|-0---3---------4--2--0-----2-0---|---4-2-0-2---|---4-2-0-2---|
D|-------------------------------4-|-2---------4-|-2---------4-|
A|-2----------2-----------2--------|---------3---|---------3---|
E|---------------------------------|-------------|-------------|

E|-0------------|-0------------|-0---2--3---2---3--5--5---3--2-|
B|--------------|--------------|-------------------------------|
G|---4-2-0-2----|---4-2-0-2----|-------------------------------|
D|-2----------4-|-2----------4-|-2----------1---------4--------|
A|---------3----|---------3----|-------------------------------|
E|--------------|--------------|-------------------------------|

E|-3---2--3---0------0---2--1--2-|------------0------0--2--1-2-|
B|-0----------1---4------1-------|-4---3--4---0---4-----1------|
G|-------------------------------|-2---------------------------|
D|-2-----------------------------|-----------------------------|
A|------------3----------0-------|-2--------------------0------|
E|-------------------------------|------------3----------------|

E|---------------------------------|-0-----------|-0-----------|
B|-0------0---5----------4---------|-------------|-------------|
G|-0---3---------4--2-0-----2-0----|---4-2-0-2---|---4-2-0-2---|
D|------------2------------------4-|-2---------4-|-2---------4-|
A|-2---------------------2---------|---------3---|---------3---|
E|---------------------------------|-------------|-------------|

E|-0-----------------|-0-----------------|-7---7--7---|
B|-------------------|-------------------|-8---8--8---|
G|---4-2-0-2---------|---4-2-0-----------|------------|
D|-2------------4----|-2-------7----4----|---4-5--4---|
A|---------3---------|-------------------|-7--------7-|
E|-------------------|---------8---------|------------|

E|-7---------7---------7-----------|-7---7--7---|
B|-10--------10--------10----------|-8---8--8---|
G|---------------------------------|------------|
D|--------------------------5------|-----5------|
A|-9-------------------9-------9---|-7-9----9-7-|
E|-----------7---------------------|------------|

E|-7------7-----7--------|-7---7---7-|-10------8-|-7-----------|
B|-10-----10----10-------|-8---8---8-|------7----|-----8---8---|
G|-----------------------|-----------|---------7-|-0-6-7-------|
D|------------------5----|-----5-7-9-|-0--5-6----|-------8-9---|
A|-9------------9------9-|-7-9-------|-----------|-----------9-|
E|--------7--------------|-----------|-----------|-------------|

E|-----3---3---|-8---0--0---|-8----------|-7----------|
B|-8-----------|------------|-----6--6---|------------|
G|-------------|------------|------------|-----8--8---|
D|-5-----------|-5-7-8--7-5-|-3-5-7--5-3-|-4-5-7--5-4-|
A|-----5-------|------------|------------|------------|
E|---9---7-5-3-|------------|------------|------------|

E|-7---0--0---|---0--------|
B|------------|-4---7--7-5-|
G|------------|-4---4--4---|
D|---4-5--4---|-4----------|
A|-7--------7-|---7-6--6-7-|
E|------------|------------|

E|------0---|------------------|-----------------|-7---7--7---|
B|-4--4---7-|------7-5----4----|------5-4--------|-8---8--8---|
G|-4--4---4-|-6--8--------3--6-|-4--5--------5-4-|------------|
D|-4--4-----|-8--4---6----4----|-7------4------7-|---4-5--4---|
A|------7-6-|-7--------------7-|-6--7--------7-6-|-7--------7-|
E|----------|------------------|-7---------------|------------|

E|-7---------7---------7---------|-7---7--7---|
B|-10--------10--------10--------|-8---8--8---|
G|-------------------------------|------------|
D|--------------------------5----|-----5------|
A|-9-------------------9-------9-|-7-9----9-7-|
E|-----------7-------------------|------------|

E|-7------7-----7--------|-7---7---7-|-10------8-|-7-----------|
B|-10-----10----10-------|-8---8---8-|------7----|-----8---8---|
G|-----------------------|-----------|---------7-|-0-6-7-------|
D|------------------5----|-----5-7-9-|----6-7----|-------8-9---|
A|-9------------9------9-|-7-9-------|-7---------|-----------9-|
E|--------7--------------|-----------|-----------|-------------|

E|-----3---3---|-8---0--0---|-8----------|-7----------|
B|-8-----------|------------|-----6--6---|------------|
G|-------------|------------|------------|-----8--8---|
D|-5-----------|-5-7-8--7-5-|-3-5-7--5-3-|-4-5-7--5-4-|
A|-----5-------|------------|------------|------------|
E|---9---7-5-3-|------------|------------|------------|

E|-7---0--0---|-----5--5---|
B|------------|-7-8-5--5-8-|
G|------------|-5-0-5--5-0-|
D|---4-5--4---|-7---4--4---|
A|-7--------7-|------------|
E|------------|------------|

E|--------5-|-----5------|-5-----0-|-------------|-2-----------|
B|-7--7-8-5-|-7-8-5--7-8-|-5-7-8-0-|-7-----------|-------------|
G|-5--5-0-5-|-5-0-5--5---|-5-8---0-|---4-2-0-2---|---4-2-0-2---|
D|-7--7---4-|-7---4--7---|-4-7-----|-----------4-|-----------4-|
A|----------|------------|-------7-|-------------|-2-----------|
E|----------|------------|---7-----|-7-----------|-------------|

E|-2-----------|-2-----------|-----2-2---|------2-|-----2------|
B|-------------|-------------|-4-5-0-0---|-4-4--0-|-4-5-0--4-5-|
G|---4-2-0-2---|---4-2-0-2---|-4---------|-4-4----|-4------4---|
D|-----------4-|-----------4-|-4-2-1-1-2-|-4-4--1-|-4-2-1--4-2-|
A|-2-----------|-2-----------|-2---------|-2------|-2----------|
E|-------------|-------------|-----------|--------|------------|

E|-2------2-|-4-----------|-4-----------|-4--------------|
B|-0--4-5-0-|---5-3-1-3-0-|---5-3-1-3-0-|---3-1-0-3----0-|
G|----4-----|-------------|-------------|----------------|
D|-1--4-2-1-|-------------|-------------|----------------|
A|-2--------|-------------|-------------|----------------|
E|----------|-0-----------|-0-----------|-0--------------|

E|-4--------------|-5-7-8--8-7-|-5-5-7-8-|-5-7-8-5-7-|-8-5-7-8-|
B|---3-1-0-3----0-|-5-0-5--5-0-|-5-5-0-5-|-5-0-5-5-0-|-5-5-0-5-|
G|----------------|-5----------|-5-5-----|-5-----5---|---5-----|
D|----------------|-----7--7---|-------7-|-----7-----|-7-----7-|
A|----------------|------------|---------|-----------|---------|
E|-0--------------|------------|---------|-----------|---------|

E|-7---5--3---5--------2-|-0--------------|
B|-----------------------|----------------|
G|------------5----------|---4-2-0-2------|
D|-5---------------------|--------------4-|
A|-----------------------|---------3------|
E|-----------------------|-2--------------|

E|-7---5--3---5----2-|-0--------------|--------7-8-|-7--------|
B|-------------------|----------------|-0---0--4---|-4--0-----|
G|------------5------|---4-2-0-2------|---5----4---|-4----5-4-|
D|-5-----------------|--------------4-|-----2------|----------|
A|-------------------|----------------|-6----------|----6---6-|
E|-------------------|-2--------------|-7---7------|----7---7-|

E|-------------7-10-8-|-7--------------|-7---5--3---5--------2-|
B|-0-----------5------|-0----0---------|-----------------------|
G|-0-7-5--4-----------|-8------7-------|------------5----------|
D|-------------9------|----------10--9-|-----------------------|
A|-7------6-----------|------6-------6-|-9---------------------|
E|-7------7-----------|------7-------7-|-----------------------|

E|-0-----------------|-7---5--3---5--------2-|-0--------------|
B|-------------------|-----------------------|----------------|
G|---4-2-0-2---------|------------5----------|---4-2-0-2------|
D|--------------4----|-4---------------------|--------------4-|
A|---------3---------|-----------------------|---------3------|
E|-2-----------------|-----------------------|-2--------------|

E|-------------|-------------|-7--8-8-7-7--8-|
B|-------0-0---|-------0-0---|-10-5-5---10-5-|
G|-4-5-5---2-5-|-4-5-5---2-5-|-8------8-8----|
D|-7-2-2-------|-7-2-2-----2-|-9--------9----|
A|-6-----6-6-7-|-6-----6-6---|---------------|
E|-7-------7---|-7-------7---|---------------|

E|-7------------|-7---7--7---|
B|-10-0---------|-8---8--8---|
G|-8----5-6-7-8-|------------|
D|-9--------0---|-----5------|
A|------------6-|-7-9----9-7-|
E|----7-8-9-----|------------|

E|-7---------7---------7-----------|-7---7--7---|
B|-10--------10--------10----------|-8---8--8---|
G|---------------------------------|------------|
D|--------------------------5------|-----5------|
A|-9-------------------9-------9---|-7-9----9-7-|
E|-----------7---------------------|------------|

E|-7---7---7-------|-7---7---7--|-10------8--|-7-----------|
B|-10--10--10------|-8---8---8--|------7-----|-----8---8---|
G|-----------------|------------|---------7--|-0-6-7-------|
D|------------5----|-----5-7-9--|-0--6-7-----|-------8-9---|
A|-9-------9-----9-|-7-9--------|------------|-----------9-|
E|-----7-----------|------------|------------|-------------|

E|-----3---3---|-8---0--0---|-8----------|
B|-8-----------|------------|-----6--6---|
G|-------------|------------|------------|
D|-5-----------|-5-7-8--7-5-|-3-5-7--5-3-|
A|-----5-------|------------|------------|
E|---9---7-5-3-|------------|------------|

E|-7----------|-7---0--0---|---0--------|
B|------------|------------|-4---7--7-5-|
G|-----8--7---|------------|-4---4--4---|
D|-4-5-7--5-4-|---4-5--4---|-4----------|
A|------------|-7--------7-|---7-6--6-7-|
E|------------|------------|------------|

E|------0---|------------------|------------------|-7---7--7---|
B|-4--4---7-|------7-5----4----|------5-4---------|-8---8--8---|
G|-4--4---4-|-6--8--------3--6-|-4--5--------5--4-|------------|
D|-4--4-----|-8--4---6----4----|-7------4-------7-|---4-5--4---|
A|------7-6-|-7--------------7-|-6--7--------7--6-|-7--------7-|
E|----------|------------------|-7----------------|------------|

E|-7---------7---------7-----------|-7---7--7---|
B|-10--------10--------10----------|-8---8--8---|
G|---------------------------------|------------|
D|--------------------------5------|-----5------|
A|-9-------------------9-------9---|-7-9----9-7-|
E|-----------7---------------------|------------|

E|-7------7----7-------|-7---7---7--|-10------8--|-7-----------|
B|-10-----10---10------|-8---8---8--|------7-----|-----8---8---|
G|---------------------|------------|---------7--|-0-6-7-------|
D|----------------5----|-----5-7-9--|-0--6-7-----|-------8-9---|
A|-9-----------9-----9-|-7-9--------|------------|-----------9-|
E|--------7------------|------------|------------|-------------|

E|-----3---3---|-8---0--0---|-8----------|
B|-8-----------|------------|-----6--6---|
G|-------------|------------|------------|
D|-5-----------|-5-7-8--7-5-|-3-5-7--5-3-|
A|-----5-------|------------|------------|
E|---9---7-5-3-|------------|------------|

E|-7----------|-7---0--0---|-----5--7---|
B|------------|------------|-7-8-5--5-8-|
G|-----8--8---|------------|-5-0-5--5-0-|
D|-4-5-7--5-4-|---4-5--4---|-7---4--4---|
A|------------|-7--------7-|------------|
E|------------|------------|------------|

E|--------5--|-5-7-8--8-7-|-5--5-7-8--|
B|-7--7-8-5--|-7-0-7--7-0-|-7--8-0-7--|
G|-5--5-0-5--|-5---9--9---|-5--5---9--|
D|-7--7---4--|-----7--7---|--------7--|
A|-----------|------------|-----------|
E|-----------|------------|-----------|

E|-------------|-5---8-7-14-12-|
B|-0-------7-5-|-0-8-5---0-----|
G|-0-5-5-4-4---|---------0-----|
D|-----5---5---|---------------|
A|-7---7-------|---------------|
E|-7---7---7---|-7---7---------|

E|-0-15-12-------0-|-7------------|
B|-0-------12------|-7-10---0-----|
G|------------12---|-8----7-------|
D|------14---------|-9------------|
A|---------14-10-7-|-9--------9---|
E|-----------------|-7----------7-|

E|-0----7-11-9----|-0-------------|
B|-9-10-0----9-12-|-9-10-12--9-10-|
G|------9----9----|------9---9----|
D|-9---------9----|-9----9---9----|
A|----------------|---------------|
E|-0--------------|-0-------------|

E|------7--------|----------7----7------|
B|-12-------12-0-|-12-------------------|
G|--------8------|----------------------|
D|----7-9---11---|-------7--9--------7--|
A|-11------------|----11---------11-----|
E|-0-------------|-0--------------------|

E|-0----7-11-9----|-0-------------|
B|-9-10-0----9-12-|-9-10-12--9-10-|
G|------9----9----|------9---9----|
D|-9---------9----|-9----9---9----|
A|----------------|---------------|
E|-0--------------|-0-------------|

E|------7--------|----------7----7------|
B|-12-------12-0-|-12-------------------|
G|--------8------|----------------------|
D|----7-9---11---|-------7--9--------7--|
A|-11------------|----11---------11-----|
E|-0-------------|-0--------------------|

E|-------9-11-16-14-|----------------|
B|-10-12-0----0-----|-14-16-12-------|
G|-8-----8----------|-14-------------|
D|-9----------------|-13----13----13-|
A|------------------|----------11-12-|
E|-0----------------|-0-----14-------|

E|-------0-----14-12-|-0-----0-------|
B|-------12-16-0-----|-14-16-12---5--|
G|-13-14-------------|-13----13------|
D|-14----------------|------------6--|
A|-14----14----------|----------9----|
E|-0-----16----------|-0-----12------|

E|---0-2-4-5-4-|-2-------2---|
B|-4---0---0---|-0-5-4-5-0-4-|
G|-4-----------|-----4-------|
D|-4-----2-2-2-|---2-4-2---4-|
A|---7-6-------|-6-------6---|
E|-2-----------|-------------|

E|-------------------|------------|
B|-2--4-7-5----2--4--|-0-2-4--2-0-|
G|-3-----------3-----|-----2--2---|
D|-2--4---6----2--4--|-7-2-4--2---|
A|-------------------|-6--------6-|
E|-2-----------------|-7----------|

E|-4----7-11-9-7-|-0----7--0----|
B|-5-10-5----9---|-9-10-0--9-10-|
G|-4---------9---|------9-------|
D|------9----9---|-9-------9----|
A|---------------|--------------|
E|-0-------------|-0------------|

E|-7------7-----7-----|-7------7----7-----|
B|--------------------|-------------------|
G|-----------8--6-----|-------------------|
D|---6-7--9--------9--|---6-7--9----6--7--|
A|--------------------|-------------------|
E|-0------------------|-0-----------------|

E|-0----7-11-9-7-|-0----7--0----|
B|-9-10-0----9---|-9-10-0--9-10-|
G|------9----9---|------9-------|
D|-9---------9---|-9-------9----|
A|---------------|--------------|
E|-0-------------|-0------------|

E|-7------7-----7-----|-7------7----7-----|
B|--------------------|-------------------|
G|-----------8--6-----|-------------------|
D|---6-7--9--------9--|---6-7--9----6-----|
A|--------------------|----------------7--|
E|-0------------------|-0-----------------|

E|-8-10-12-15-13-12-|-8-10-8--------|
B|------------------|---------------|
G|-0----------0-----|-0--------7----|
D|------10----------|------10----10-|
A|------------------|---------------|
E|-6----------------|-6-------------|

E|--------8------|-8-------------------|
B|-6-8-10---10-8-|-6--8--6-------------|
G|---------------|---------------------|
D|-7---10---10---|---------7-10-----7--|
A|-0-------------|-0-----0-------8-----|
E|----------8----|---------------------|

E|-0----------7--0------|-7------7-0----|
B|---------9-----10--9--|---10-9---10-9-|
G|-----11--9--8--6------|-8----9-8-6----|
D|---6-7---9---------9--|---11-9------9-|
A|----------------------|---------------|
E|-7--------------------|-7-------------|

E|------7-------------|-0-----------|
B|-7--9---10----7--9--|-0-----------|
G|-8--7---8-----8-----|-------------|
D|-7------9-----7--9--|-6-7-6-------|
A|----8---9-----------|-7-----9-7---|
E|-7------------------|-----------7-|

E|-------------|-0---6--11-6-|-7-9-6-7------|
B|-0---7--11-9-|-7-9---------|---------9-11-|
G|-8-9-8--8----|-----9--9----|-8---8---8----|
D|-----9--9----|-8-----------|--------------|
A|-----9--9----|-----9--9----|-----9---9----|
E|-7-----------|-7-----------|-7------------|

E|-6-7-0-6-0--|-------------|-0---6--11----|
B|-----9---7--|-0---7--11-9-|-7-9-------10-|
G|-8----------|-8-9-8--8----|-----9--9-----|
D|---------8--|-----9--9----|-8------------|
A|-9-------9--|-----9--9----|-----9--9-----|
E|------------|-7-----------|-7------------|

E|-7-9-6-7------|-6-7-0-6-0-|
B|---------9-11-|-----9---7-|
G|-8---8---8----|-8---------|
D|--------------|---------8-|
A|-----9---9----|-9-------9-|
E|-7------------|-----------|

E|-7---0--6---|-7---0--6---|-7-9-------0-|
B|-0-7-9----7-|-0-7-9----7-|-0---7--10---|
G|-8------9---|-8------9---|---6---------|
D|-----8--8---|-----8--8---|--------7----|
A|------------|------------|-----9-----7-|
E|-7---7--7---|-7---7--7---|-------------|

E|------------|-0----7-11-9-7-|
B|-9---7----0-|-9-10-0----0---|
G|---8----6---|------9----9---|
D|-6----------|-9-------------|
A|---6-9------|---------------|
E|--------9-7-|-0-------------|

E|-0----7--0----|-7---7---7---|-7---7--7---|
B|-9-10-0--9-10-|-------------|------------|
G|------9-------|-------8-6---|------------|
D|-9-------9----|---7-9-----9-|-6-7-9--6-7-|
A|--------------|-------------|------------|
E|-0------------|-0-----------|-0----------|

E|-0----7-11-9-7-|-0----7--0----|
B|-9-10-0----9---|-9-10-0--9-10-|
G|------9----9---|------9-------|
D|-9---------9---|-9-------9----|
A|---------------|--------------|
E|-0-------------|-0------------|

E|-7------7-----7-----|-7---7--7---|
B|--------------------|------------|
G|-----------8--6-----|------------|
D|---6-7--9--------9--|-6-7-9--6---|
A|--------------------|----------7-|
E|-0------------------|-0----------|

E|-8-10-12-15-13-12-|-8-10-8-------|
B|------------------|--------------|
G|-0----------0-----|-0-------7----|
D|------10----------|------10---10-|
A|------------------|--------------|
E|-6----------------|-6------------|

E|--------8------|-8------------|
B|-6-8-10---10-8-|-6-8-6--------|
G|---------------|--------------|
D|-7---10---10---|-----7-10---7-|
A|-0-------------|-----0----8---|
E|----------8----|-8------------|

E|-0---------7--8-|-7--12-8--10-7-8--|
B|-0-0--8-10------|-------10----8----|
G|-0-11---8--9--9-|-9--9-----7--0----|
D|------9-------7-|-------7-------10-|
A|---7--7-9--10---|-10-11----9-------|
E|-7--------------|---------------12-|

E|----7--0-0-0--0--|-7--7--7--|-7---7---7---|
B|-10-0--8-9-10-11-|-8--8--7--|-8---8---8---|
G|-11--------------|-9--9--8--|-------------|
D|---------0-11-10-|----------|-------------|
A|-9-----7---------|----------|-7-9-10--9-7-|
E|----11-----9--8--|-7--7--7--|-------------|

E|-7---------7---------7----------|
B|-10--------10--------10---------|
G|--------------------------------|
D|--------------------------------|
A|-9-------------------9----10--9-|
E|-----------7--------------------|

E|-7---7---7---|-7---------7---------7------------|
B|-8---8---8---|-10--------10--------10-----------|
G|-------------|----------------------------------|
D|-------------|----------------------------------|
A|-7-9-10--9-7-|-9-------------------9----10--9---|
E|-------------|-----------7----------------------|

E|-7---7----7--|-10-------8-|
B|-8---8----8--|-------7----|
G|-------------|----------7-|
D|--------7-9--|-0-----7----|
A|-7-9-10------|----11------|
E|-------------|------------|

E|-7-------------|------3---3---|-8---0--0---|
B|------8----8---|-8------------|------------|
G|-0-------------|--------------|------------|
D|---11-12-8-9---|--------------|-5-7-8--7-5-|
A|-------------9-|-10-4-5-------|------------|
E|---------------|--------7-5-3-|------------|

E|-8----------|-7----------|
B|-----6--6---|------------|
G|------------|-----8--8---|
D|-3-5-7--5-3-|-4-5-7--5-4-|
A|------------|------------|
E|------------|------------|

E|-7---0-0---|---0-------|-----0---|
B|-----------|-4---7-7-5-|-4-4---7-|
G|-----------|-4---4-4---|-4-4---4-|
D|---4-5-4---|-4---------|-4-4-----|
A|-7-------7-|---7-6-6-7-|-----7-6-|
E|-----------|-----------|---------|

E|---------------|------------------|
B|-----7-5--4----|------5-4---------|
G|-6-8------3--6-|-4--5--------5--4-|
D|-8-4---6--4----|-7------4-------7-|
A|-7-----------7-|-6--7--------7--6-|
E|---------------|-7----------------|

E|-7---7--7---|-7---------7---------7-----------|-7---7--7---|
B|-8---8--8---|-10--------10--------10----------|-8---8--8---|
G|------------|---------------------------------|------------|
D|---4-5--4---|--------------------------5------|-----5------|
A|-7--------7-|-9-------------------9-------9---|-7-9----9---|
E|------------|-----------7---------------------|----------7-|

E|-7-----7-----7--------|-7---7---7-|-10------8--|-7-----------|
B|-10----10----10-------|-8---8---8-|------7-----|-----8---8---|
G|----------------------|-----------|---------7--|-0-6-7-------|
D|-----------------5----|-----5-7-9-|-0--6-7-----|-------8-9---|
A|-9-----------9------9-|-7-9-------|------------|-----------9-|
E|-------7--------------|-----------|------------|-------------|

E|-----3---3---|-----5--5---|--------5--|-5-7-8--8-7-|
B|-8-----------|-7-8-5--5-8-|-7--7-8-5--|-7-0-7--7-0-|
G|-------------|-5-0-5--5-0-|-5--5-0-5--|-5---9--9---|
D|-5-----------|-7---4--4---|-7--7---4--|-----7--7---|
A|-----5-------|------------|-----------|------------|
E|---9---7-5-3-|------------|-----------|------------|

E|-5--5-7-8--|-------------|
B|-7--7-0-7--|-0-------7-5-|
G|-5--5---9--|-0-5-5-4-0---|
D|--------7--|-----5-------|
A|-----------|-7---7---7---|
E|-----------|-7---7---7---|

E|-5---8-7-14-12-|-0-15-12------0-|----------|-7---7---7---|
B|-0-8-5---0-----|-0-------12-8---|-8-----7--|-8---8---8---|
G|---------------|------------0---|-8-----7--|-------------|
D|---------------|------14--------|-7--9--7--|-------------|
A|---------------|---------14---7-|-------9--|-7-9-10--9-7-|
E|-7---7---------|----------------|-7--------|-------------|

E|-7---------7---------7------------|-7---7---7---|
B|-10--------10--------10-----------|-8---8---8---|
G|----------------------------------|-------------|
D|----------------------------------|-------------|
A|-9-------------------9----10--9---|-7-9-10--9-7-|
E|-----------7----------------------|-------------|

E|-7---------7---------7----------|-0-------0--------0---------|
B|-10--------10--------10---------|-0-------0--------0---------|
G|--------------------------------|-0-------0--------0---------|
D|--------------------------------|----------------------------|
A|-9-------------------9----10--9-|-7--------------------------|
E|-----------7--------------------|------------------8---10--8-|

E|-0--------0--------0-----------|-0--------0--------0---------|
B|-0--------0--------0-----------|-0--------0--------0---------|
G|-0--------0--------0-----------|-0--------0--------0---------|
D|-------------------------------|-----------------------------|
A|-------------------9---10--9---|-7---------------------------|
E|-7-----------------------------|-------------------8---10--8-|

E|-0--------0--------0--------|-0-|-0----|--------|--------|---|
B|-0--------0--------0--------|-0-|-0----|-4------|-4------|-4-|
G|-0--------0--------0--------|-0-|-0----|-0------|--------|---|
D|----------------------------|---|------|--------|-4------|-5-|
A|----------------------------|---|-3----|-2------|-3------|---|
E|-7-----------------2---3--2-|-0-|------|--------|--------|-3-|

E|--------|--------|--------|-----------0-|-4-7-12-16-0-0-|-12-|
B|--------|-4------|--------|---------0---|---------------|-0--|
G|--------|--------|--------|-------1-----|---------------|-12-|
D|-----4--|-5------|-4------|-----2-------|---------------|-14-|
A|--------|-2------|--------|---2---------|---------------|-10-|
E|--------|--------|--------|-0-----------|---------------|-0--|
Добавлено: 29.06.2015
Другие материалы по этой песне:
  • Аккорды и текст

Страница создана 29.06.2015
http://primanota.ru/isaak-albenis/arabskaya-serenada-chords.htm
Привет, Гость.
Предлагаем пройти революционный курс по гитаре.
Подарок от PrimaNota.Ru, забирай!