PrimaNota.ru - самый крупный в мире бесплатный архив песенных текстов, аккордов, табулатур и нот


Isaac Hayes - Walk On By - таба, видео

Регистрация Запомнить меня
Войти через:  Facebook Google Twitter Vk Yandex Mail.ru

Isaac Hayes - Walk On By - таба, видео

Печатать
Просмотров: 174
Авторы музыки: Burt Bacharach
Авторы текста: Hal David
Single Version of Walk on By.
This is what I got so far. 
The solo parts are played in the Bb minor pentatonic.

Intro chords (Organ)
Bb min 
Eb


Main riff (Guitar)
E-----------------------------------------------------------------]
B-----------------------------------------------------------------]
G-----------------------------------------------------------------]
D-----------------------------------------------------------------]
A--------4-6-6b7--4-6~-4-6~-4-6~-4-6~-4-6b7-~~~~------------------]
E---6-6-----------------------------------------------------------]
 
Listen to guitar
Bb min		Bb min 	Eb
If you see me walking down the street
Bb min		Eb		Bb min 	
And I start to cry each time we meet

e---------------------]
B-6-----6-------------]
G-8b10--6-------------]
D---------------------]
A---------------------]
E---------------------]



G#min7         Bb min             G#min7       Bb min
Walk on by,                               walk on by
	        Eb min           
Make believe that you don't see the tears
Bb min
Oh just let me grieve
B			    C#
In private 'cause each time I see you
Bb min
I break down and cry

Oh baby, walk on by

Chords are Same as verse 1
Mmm
I just can't get over losing you
So if I seem broken in two

E------6-------------------]
B—9b11---------------------]
G----------6~--------------]
D-------------8~-----------]
A--------------------------]
E--------------------------]

Please walk on by, walk on by
Foolish pride is all that I have left
So let me hide
The tears and the sadness you gave me
You put the hurt on
You socked it to me, momma
When you said goodbye
So please walk on by
Make believe you never see the tears I cry
So do me a favor and walk on by
So I'm beggin' you to walk on by

Oh yeah
Make believe you never see the tears I cry
So I'm beggin' you, I'm beggin' you to walk on by
Make believe you never see the tears I cry
Oh, there's no dirt in my eye
Oh no
Smoking don't you me cry no no no (???)
It's the hurt you put on me, yeah
I don't want you to see this man cry
So please walk on by
Oh mother, mother, walk on by
Добавлено: 17.07.2012
Другие материалы по этой песне:

Страница создана 03.06.2012
http://primanota.ru/isaac-hayes/walk-on-by-chords.htm
Привет, Гость.
Предлагаем пройти революционный курс по гитаре.
Подарок от PrimaNota.Ru, забирай!