PrimaNota.ru - самый крупный в мире бесплатный архив песенных текстов, аккордов, табулатур и нот


Исаак Альбенис - Pavane-capricho Op 12 - таба, видео

Регистрация Запомнить меня
Войти через:  Facebook Google Twitter Vk Yandex Mail.ru

Исаак Альбенис - Pavane-capricho Op 12 - таба, видео

Печатать
Просмотров: 175
Pavane-Capricho, Op 12 - Isaac Albeniz (1860-1909)


it does get a bit hairy around bar 60 when it goes past the 12th fret -
you may want to do like i do, make something up


tuning - D A D G B E (6th string tuned down to D)


E |-------5-|-10----5----6-8--6----6--|-5-----------5-|
B |-----6---|-------6----8------8-----|----6------6---|
G |---7-----|-------7----6------------|----7----7-----|
D |-7-------|-------------------------|-------7-------|
A |---------|-------------------------|---------------|
D |---------|-0-----------------------|-0-------------|


|-10----5----6-8--6----6--|-5-----------10-13-|
|-------6----8------8-----|----6-----10-------|
|-------7----6------------|----7--10----------|
|-------------------------|-------0-----------|
|-------------------------|-------------------|
|-0-----------------------|-0-----------------|


|-13----12-13-12-10-9---------12--|-12----10----8-10--8---------|
|--------------------------8------|-8-------------------11--10--|
|-0--------------------10---------|-------10--------------------|
|---------------------------------|-0---------------------------|
|-------------------0-------------|-------------9---------------|
|---------------------------------|-----------------------------|


|--------------------|--------------5-|-10----5----6-8--6----6--|
|-11--10-8-10-8----8-|------------6---|-------6----8------8-----|
|-0-------------10---|-9--------7-----|-------7----6------------|
|----------8---------|-11-----7-------|-------------------------|
|--------------------|-----0----------|-------------------------|
|--------------------|----------------|-0-----------------------|


|-5-----------5-|-10----5----6-8--6----6--|-5-----------5-|
|----6------6---|-------6----8------8-----|----6------6---|
|----7----7-----|-------7----6------------|----7----7-----|
|-------7-------|-------------------------|-------7-------|
|---------------|-------------------------|---------------|
|-0-------------|-0-----------------------|-0-------------|


|-5-6--5-----------------|------------------11--10--8--|-6--5-----------|
|--------8--6--5----8----|-8-10--8---------------------|------8-6-8-5-6-|
|-------------------9----|-9-------10------------------|--------6-------|
|------------------------|-0---------------------------|-5------7-------|
|-0------------0---------|---------------9-------------|----------------|
|------------------------|-----------------------------|----------------|


|---------------|-------5-8-----|-5--3----------|-------7-10-----|
|---------------|-----7------7--|-3-------------|---6-9-------9--|
|-7-------------|-5-8--------5--|-3-------------|-7-----------7--|
|-7---------4-7-|---------------|-5---------6-9-|----------------|
|-8-----5-6-----|------------5--|-------7-8-----|-------------7--|
|----0----------|---------------|---------------|----------------|


|-7--5----------|---6-9-12-15------|-12----10----8-10--8---------|
|-5-------------|-8------------14--|---------------------11--10--|
|-5---------6-9-|--------------12--|-10----------8---------------|
|-7-----7-8-----|------------------|-----------------------------|
|---------------|--------------0---|-------------9---------------|
|---------------|------------------|-12--------------------------|


|---5-6-5---------|-----------5-6-3--------|-----------5-6-3--------|
|-8-------8-6-5---|-----------5------6--3--|-2---------5------6--3--|
|-0-------------7-|-6---------3------------|-2---------3------------|
|-----------------|-7----------------------|------------------------|
|-----------------|------0-----------------|------0-----------------|
|-----------------|------------------------|------------------------|


|-----------5-6-----------|-3-5-------------------------|------------5-|
|-1-----------10-8--6--5--|---10-6--5--3--6-8--5--------|----------6---|
|-2-----------------------|-----------------12----6-----|--------7-----|
|-------------------------|-----------------------------|-0----7-------|
|------0------------------|--------------------------0--|--------------|
|-------------------------|-----------------------------|--------------|


|-10----5----6-8--6----6--|-5-----------5-|-5-----------5-|-5-----------5-|
|-------6----8------8-----|----6------6---|----6------6---|----6------6---|
|-------7----6------------|----7----7-----|----7----7-----|----7----7-----|
|-------------------------|-------7-------|-------7-------|-------7-------|
|-------------------------|---------------|---------------|---------------|
|-0-----------------------|-0-------------|-0-------------|-0-------------|


|-5-6--5-----------------|-3-5--3---------11--10--8--|-6--5-----------|------|
|--------8--6--5----8----|-5------6------------------|------8-6-8-5-6-|------|
|-------------------9----|---------------------------|--------7-------|-7----|
|------------------------|-0-------------------------|-5------7-------|-7----|
|-0------------0---------|-------------9-------------|----------------|-8----|
|------------------------|---------------------------|----------------|-0----|


|-------------|---------------|--------3--2--|-2-------------|
|---------2---|-----3-2-------|-2------2-----|-2-5-5-2-0--2--|
|-------2---4-|-4-2--------2--|-0--0-2-------|---------0--0--|
|-----4---4---|-4-------4--4--|--------------|---------------|
|-----0---0---|-0-------0--0--|-0--0---0-----|-0-------0--0--|
|-----0---0---|-0-------0--0--|-0--0---0-----|-0-------0--0--|


|-------------------------|---------------|----------7-5-|-5-4-----5--4--|
|-0-2--0------------2-----|-----3-2-------|-2------------|-6-----6-6--6--|
|--------2-------2-----4--|-4-2--------2--|-2----5-6-----|-4---6---4--4--|
|-4-----------4-----4-----|-4-------4--4--|-4------------|---------------|
|-0-----------0-----0-----|-0-------0--0--|-4------------|-4-------4--4--|
|-0-----------0-----0-----|-0-------0--0--|--------------|---------------|


|-2------------|---------------|--------3--2--|-2-------------|
|-2--------2---|-----3-2-------|-2------2-----|-2-5-5-2-0--2--|
|-2------2---4-|-4-2--------2--|-0--0-2-------|---------0--0--|
|-4----4---4---|-4-------4--4--|--------------|---------------|
|------0---0---|-0-------0--0--|-0--0---0-----|-0-------0--0--|
|------0---0---|-0-------0--0--|-0--0---0-----|-0-------0--0--|


|-------------------------|---------------|----------7-5-|-5-4-----5--4--|
|-0-2--0------------2-----|-----3-2-------|-2------------|-6-----6-6--6--|
|--------2-------2-----4--|-4-2--------2--|-2----5-6-----|-4---6---4--4--|
|-4-----------4-----4-----|-4-------4--4--|-4------------|---------------|
|-0-----------0-----0-----|-0-------0--0--|-4------------|-4-------4--4--|
|-0-----------0-----0-----|-0-------0--0--|--------------|---------------|


|-2------------|-----0-3-7--7--|-7-----------7--------5--|-----------------|
|-2------1-0---|------------4--|-8--------10-10-7--------|-8-5-0-8-8-7---7-|
|-2----------2-|-0-4--------4--|-9-----------------5-----|-------------8---|
|-4----1-------|-2-------------|-------------------------|-------------7---|
|--------------|---------------|-7-----------------------|-----------------|
|--------------|---------------|-------------------------|-------------9---|


|-0------------|-----2-5-9--9--|-9------------9--------7--|-5-----5-5-4---4-|
|-0------3-2-0-|---2--------6--|-10--------12-12-9--------|---7---------6-9-|
|-0------------|-2----------6--|-11-----------------7-----|-----6-------4---|
|------3-------|-4-------------|--------------------------|-----------------|
|-7------------|---------------|-9------------------------|-------------4---|
|--------------|---------------|--------------------------|-----------------|


|-2------8-7----|-0-7-0------7--|-7--12-----10-9-7-|----9----------9---|
|-2----------10-|-8-----8-7--7--|-8----------------|-10---7-10-9---9---|
|-2----8--------|---------8--8--|-9------10--------|-11--------10--10--|
|-4-------------|------------9--|------------------|---------------11--|
|---------------|---------------|------------------|-------------------|
|---------------|---------------|------------------|-------------------|


|-14------------9---15---14-|-14-15-------------------------|
|-10--------10--------------|----19-17--14--17--12----14----|
|-11----------------12------|-------------------------------|
|---------------11----------|-------------------------------|
|-----------12--------------|-0-----------------0-----------|
|---------------------------|-------------------------------|


|---------------------|-----------------0---|----------------|-----0-3-7--7--|
|-12------15-14-------|-------12----14------|-15-------1-0---|------------4--|
|-----14--------14----|-14-12----12-----14--|-11-----------2-|-0-4--------4--|
|-16---------------16-|-----------------11--|-12-----1-------|-2-------------|
|---------------------|-----------------0---|----------------|---------------|
|-12------------------|-14------------------|-12--0----------|---------------|


|-7-----------7--------5--|-----------------|-0------------|-----2-5-9--9--|
|-8--------10-10-7--------|-8-5-0-8-8-7---7-|-0------3-2-0-|---2--------6--|
|-9-----------------5-----|-------------8---|-0------------|-2----------6--|
|-------------------------|-------------7---|------3-------|-4-------------|
|-7-----------------------|-----------------|-7------------|---------------|
|-------------------------|-------------9---|--------------|---------------|


|-9------------9--------7--|-5-----5-5-4---4-|-2------8-7----|-0-7-0------7--|
|-10--------12-12-9--------|---7---------6-9-|-2----------10-|-8-----8-7--7--|
|-11-----------------7-----|-----6-------4---|-2----8--------|---------8--8--|
|--------------------------|-----------------|-4-------------|------------9--|
|-9------------------------|-------------4---|---------------|---------------|
|--------------------------|-----------------|---------------|---------------|


|-7--12-----10-9-7-|----9----------9---|-14------------9---15---14-|
|-8----------------|-10---7-10-9---9---|-10--------10--------------|
|-9------10--------|-11--------10--10--|-11----------------12------|
|------------------|---------------11--|---------------11----------|
|------------------|-------------------|-----------12--------------|
|------------------|-------------------|---------------------------|


|-14-15-------------------------|---------------------|-----------------0---|
|----19-17--14--17--12----14----|-12------15-14-------|-------12----14------|
|-------------------------------|-----14--------14----|-14-12----12-----14--|
|-------------------------------|-16---------------16-|-----------------11--|
|-0-----------------0-----------|---------------------|-----------------0---|
|-------------------------------|-12------------------|-14------------------|


|--------------------|-10----5----6-8--6----6--|-5-----------5-|
|-15--------------10-|-------6----8------8-----|----6------6---|
|-11-----------10----|-------7----6------------|----7----7-----|
|-12--------12-------|-------------------------|-------7-------|
|--------12----------|-------------------------|---------------|
|-12--0--------------|-0-----------------------|-0-------------|


|-10----5----6-8--6----6--|-5-----------10-13-|
|-------6----8------8-----|----6-----10-------|
|-------7----6------------|----7--10----------|
|-------------------------|-------0-----------|
|-------------------------|-------------------|
|-0-----------------------|-0-----------------|


|-13----12-13-12-10-9---------12--|-12----10----8-10--8---------|
|--------------------------8------|-8-------------------11--10--|
|-0--------------------10---------|-------10--------------------|
|---------------------------------|-0---------------------------|
|-------------------0-------------|-------------9---------------|
|---------------------------------|-----------------------------|


|--------------------|--------------5-|-10----5----6-8--6----6--|
|-11--10-8-10-8----8-|------------6---|-------6----8------8-----|
|-0-------------10---|-9--------7-----|-------7----6------------|
|----------8---------|-11-----7-------|-------------------------|
|--------------------|-----0----------|-------------------------|
|--------------------|----------------|-0-----------------------|


|-5-----------5-|-10----5----6-8--6----6--|-5-----------5-|
|----6------6---|-------6----8------8-----|----6------6---|
|----7----7-----|-------7----6------------|----7----7-----|
|-------7-------|-------------------------|-------7-------|
|---------------|-------------------------|---------------|
|-0-------------|-0-----------------------|-0-------------|


|-5-6--5-----------------|------------------11--10--8--|----------------0----|
|--------8--6--5----8----|-8-10--8---------------------|-11--10-------8------|
|-------------------9----|-9-------10------------------|-0------12-10-----10-|
|------------------------|-0---------------------------|-----------11--------|
|-0------------0---------|---------------9-------------|-----------12--------|
|------------------------|-----------------------------|---------------------|


|--------|-10----||
|----10--|-------||
|-7--12--|-10----||
|-7--11--|-12----||
|-8--0---|-------||
|-0------|-12----||


Добавлено: 16.04.2012
Другие материалы по этой песне:
  • Аккорды и текст

Страница создана 16.04.2012
http://primanota.ru/isaac-albeniz/pavane-capricho-op-12-chords.htm
Привет, Гость.
Предлагаем пройти революционный курс по гитаре.
Подарок от PrimaNota.Ru, забирай!