PrimaNota.ru - самый крупный в мире бесплатный архив песенных текстов, аккордов, табулатур и нот


Irving Berlin - Sisters - White Christmas - таба, видео

Регистрация Запомнить меня
Войти через:  Facebook Google Twitter Vk Yandex Mail.ru

Irving Berlin - Sisters - White Christmas - таба, видео

Печатать
Просмотров: 91
Уроки эстрадного вокала в Санкт-Петербурге
-------------------------------------------------------------------------------
                             SISTERS FROM WHITE CHRISTMAS - BERLIN IRVING
-------------------------------------------------------------------------------
Based off Youtube Cover :https://www.youtube.com/watch?v=PG7x8HWbDzU
Channel: https://www.youtube.com/user/Allacra

MAKE SURE TO RATE THE TAB AND FOLLOW THE YOUTUBER CHANNEL IF YOU FIND IT HELPFUL!! ENJOY <3

Tuning:Standard Tuning 
No capo

Tuning:Standard

e|------|------|------------------------------|
B|------|------|------------------------------|
G|------|------|-------------1--1-------------|
D|----1-|----3-|-------1--1--------1--1--3----|
A|-3----|-4----|-3--3-----------------------4-|
E|------|------|------------------------------|
Sisters| Sisters| There were never such devoted sisters

e|---------------------------|------|------------------------|
B|---------------------------|------|------------------------|
G|-------------1--1--3--3--1-|------|------------------------|
D|-------1--1----------------|-3--1-|----------0--2----------|
A|-3--3----------------------|------|-------2-----------2--0-|
E|---------------------------|------|-3--3-----------3-------|
Never had to have a chaperone| "No, sir"| I'm there to keep my eye on her

e|------|------|------------------------------|
B|------|------|------------------------------|
G|------|------|-------------1--1-------------|
D|----1-|----3-|-------1--1--------1--1-------|
A|-3----|-4----|-3--3--------------------4--1-|
E|------|------|------------------------------|
Caring| Sharing| Every little thing that we are wearing

e|---------------------------------|------------|------------|
B|---------------------------------|------------|------------|
G|-------------1--1--3--3--1-------|------------|-------0--1-|
D|-------1--1-----------------3--1-|------------|-3--3-------|
A|-3--3----------------------------|-------1--3-|------------|
E|---------------------------------|-4--4-------|------------|
When a certain gentleman arrived from Rome| She wore the dress| And I stayed home

e|---------------|---------------|---------------------|
B|---------------|---------------|---------------------|
G|-0--0--0--1--0-|---------------|---------------------|
D|---------------|-2--2--2--4--2-|-2--0--0--0--2--0--2-|
A|---------------|---------------|---------------------|
E|---------------|---------------|---------------------|
All kinds of weather| We stick together| The same in the rain or sun

e|---------------|---------------|---------|------------|
B|---------------|---------------|---------|------------|
G|-0--0--0--1--0-|---------------|---------|------------|
D|---------------|-2--2--2--4--2-|-2--0--0-|-0--2--0--5-|
A|---------------|---------------|---------|------------|
E|---------------|---------------|---------|------------|
Two diff'rent faces| But in tight places| We think and| We act as one

e|------|------|------------------------------|
B|------|------|------------------------------|
G|------|------|-------------1--1-------------|
D|------|----2-|-------1--1--------1--1--3----|
A|-3--5-|-3----|-3--3-----------------------4-|
E|------|------|------------------------------|
Those who've| Seen us| Know that not a thing could come between us

e|---------------------------------------|
B|---------------------------------------|
G|-------------1--1--3--3--1-------------|
D|-------1--1-----------------3--1-------|
A|-3--3-----------------------------3--4-|
E|---------------------------------------|
Many men have tried to split us up but no one can

e|---------------|---------------------------|
B|---------------|---------------------------|
G|-------1--3--1-|-------------------------1-|
D|-3--3----------|-3--1--3--1--0--2--0-------|
A|---------------|----------------------4----|
E|---------------|---------------------------|
Lord help the mister| Who comes between me and my sister

e|------------------|------------------------|
B|------------------|------------------------|
G|------------------|------------------------|
D|----------------3-|-------3--------0--2--3-|
A|-5--3--3--3--3----|-3--4-----5--3----------|
E|------------------|------------------------|
And Lord help the sister| Who comes between me and my man


************************************

| /   slide up
| \   slide down
| h   hammer-on
| p   pull-off
| ~   vibrato
| +   harmonic
| x   Mute note
| b   Bend
| pb  Pre-bend
| br  Bend release
| pbr Pre-bend release
| brb Bend release bend

************************************
Добавлено: 26.06.2016
Другие материалы по этой песне:
  • Аккорды и текст

Страница создана 26.06.2016
http://primanota.ru/irving-berlin/sisters-white-christmas-chords.htm
Привет, Гость.
Предлагаем пройти революционный курс по гитаре.
Подарок от PrimaNota.Ru, забирай!