PrimaNota.ru - самый крупный в мире бесплатный архив песенных текстов, аккордов, табулатур и нот


Iron Mind - The Iron Mind - таба, видео

Регистрация Запомнить меня
Войти через:  Facebook Google Twitter Vk Yandex Mail.ru

Iron Mind - The Iron Mind - таба, видео

Печатать
Просмотров: 104
Iron Mind
The Iron Mind
The Sun Has Set

Standard tuning

Figure strums yo'self


ALL DA NOTEZ R POWA CORDZ; I'MA LAZIEE 2NITE


0.00 - 0.22
--------------------------------------------------------|
--------------------------------------------------------|
--------------------------------------------------------|
--------------------------------------------------------|
--------------------------------------------------------|
--1-0-1---1-0------------1-0-1---1-3---4----------------|
               ........


0.23
--------------------------------------------------------|
--------------------------------------------------------|
--------------------------------------------------------|
--------------------------------------------------------|
--------------------------------------------------------|
--0---4-3--1--3-0--------0---4-3--1--3--6----8----------|


0.41          0.48
------------|---------------------------------------------|
-----5------|----------------------(5)--------------------|
------------|---------------------------------------------|
-----2------|----------------------(2)--------------------|
------------|---------------------------------------------|
--0------0--|--0-1-0-1-4-3---0-1-0------------------------|


1.09
--------------------------------------------------------|
--------------------------------------------------------|
--------------------------------------------------------|
--------------------------------------------------------|
--------------------------------------------------------|
--0--1--3--4--0--4--3--1--0--1--3--4--0-----431---------|



1.31
--------------------------------------------------------|
--------------------------------------------------------|
--------------------------------------------------------|
--------------------------------------------------------|
--------------------------------------------------------|
--0--------4----4-3-1--0--------6----4-3-1--------------|



1.49
--------------------------------------------------------|
--------------------------------------------------------|
--------------------------------------------------------|
--------------------------------------------------------|
--------------------------------------------------------|
--0----1------4-3-1-------------------------------------|
    ..   ....


2.00
--------------------------------------------------------|
--------------------------------------------------------|
--------------------------------------------------------|
--------------------------------------------------------|
--------------------------------------------------------|
--0-----------4-3-1-------------------------------------|


http://www.facebook.com/ironmindhc
ironmindhc.tumblr.com
Добавлено: 16.10.2013
Другие материалы по этой песне:
  • Аккорды и текст

Страница создана 16.10.2013
http://primanota.ru/iron-mind/the-iron-mind-chords.htm
Привет, Гость.
Предлагаем пройти революционный курс по гитаре.
Подарок от PrimaNota.Ru, забирай!