PrimaNota.ru - самый крупный в мире бесплатный архив песенных текстов, аккордов, табулатур и нот


Iron Mind - The Calm And The Storm - таба, видео

Регистрация Запомнить меня
Войти через:  Facebook Google Twitter Vk Yandex Mail.ru

Iron Mind - The Calm And The Storm - таба, видео

Печатать
Просмотров: 61
Уроки эстрадного вокала в Санкт-Петербурге
THE CALM AND THE STORM
IRON MIND
HELL SPLIT WIDE OPEN

standard tuning

This is just the basic riffs and that. Figure stum patterns yourself and the
little slides and all that...


"Just a boy who was I to know"
------------------------------------------|
------------------------------------------|
------------------------------------------|
------------------------------------------|
--6-3------3-2----------6-3--------3-5-6--|
--4-1---11-1-0-----0000-4-1---1111-1-3-4--|
        ..         ....       ....



"I want you to cry like I've cried"
--------------------------|
----(5~)------------------|
--------------------------|
--------------------------|
--2--------3-----6-5-3-5--|
--0--------1-----4-3-1-3--|



------------------------------------------|
------------------------------------------|
------------------------------------------|
------------------------------------------|
--6-3------3-2----------6-3--------3-5-6--|
--4-1---11-1-0-----0000-4-1---1111-1-3-4--|
        ..         ....       .... . . .


(solo riff, differs the 3rd time)
---------------------------------------|
---------------------------------------|
---------------------------------------|
---------------------------------------|
--2------3------8--8--3--3---5-2----3--|
--0----001----116-06-01-01-003-0----1--|
       ..     ..  .  .  .  ..



"Want you to cry"
--------------------------|
----(5~)------------------|
--------------------------|
--------------------------|
--2--------3-----6-5-3-5--|
--0--------1-----4-3-1-3--|



"World's consumed by sin"
------------------------------------------|
------------------------------------------|
------------------------------------------|
------------------------------------------|
--6-3------3-2----------6-3--------3-5-6--|
--4-1---11-1-0-----0000-4-1---1111-1-3-4--|
        ..         ....       ....



---------------------------------------|
---------------------------------------|
---------------------------------------|
---------------------------------------|
--2-2-2-6--3--2--2-2-2-2-2-2-2---------|
--0-0-0-4--1--0--0-0-0-0-0-0-0---------|


---------------------------------------|
---------------------------------------|
---------------------------------------|
---------------------------------------|
--8-8-8-5--3--2--2-2-2-2-2-2-2---------|
--6-6-6-3--1--0--0-0-0-0-0-0-0---------|


http://www.facebook.com/ironmindhc
Добавлено: 23.11.2013
Вам также может быть интересно:
Другие материалы по этой песне:
  • Аккорды и текст

Страница создана 23.11.2013
http://primanota.ru/iron-mind/the-calm-and-the-storm-chords.htm
Привет, Гость.
Предлагаем пройти революционный курс по гитаре.
Подарок от PrimaNota.Ru, забирай!