PrimaNota.ru - самый крупный в мире бесплатный архив песенных текстов, аккордов, табулатур и нот


Iron Mind - Look Into My Eye - таба, видео

Регистрация Запомнить меня
Войти через:  Facebook Google Twitter Vk Yandex Mail.ru

Iron Mind - Look Into My Eye - таба, видео

Печатать
Просмотров: 85
Уроки эстрадного вокала в Санкт-Петербурге
Look Into My Eye
Iron Mind
Hell Split Wide Open

Standard tuning

You'll need to figure some strumming patterns yourself.



Intro: (DA DA DUN, LOOK INTO MY EYE...)
---------------------------------------------------|
---------------------------------------------------|
---------------------------------------------------|
---------------------------------------------------|
--6-3-5----6-3-5----6-3-5-----------2-3-5-6----8---|
--4-1-3----4-1-3----4-1-3-00000000000-1-3-4-0006\--|
                          ..........        ...


"Can't find a balance"
----------------------|----------------------|
----------------------|----------------------|
----------------------|----------------------|
----------------------|----------------------|
--2----6-3-5---2----5-|-2----6-3-5---6----8--|
--0-00-4-1-3-0-0-00-3-|-0-00-4-1-3-0-4-00-6--|
    ..       .   ..       ..       .   ..

----------------------|----------------|
----------------------|----------------|
----------------------|----------------|
----------------------|----------------|
--2----6-3-5---2----5-|-2-3-5-6----8---|
--0-00-4-1-3-0-0-00-3-|-0-1-3-4-0006\--|
    ..       .   ..             ...


-----------------|
-----------------|
-----------------|
-----------------|
--2-3-5-6----8---|
--0-1-3-4-0006\--|
          ...


"Deal with the devil"
-------------------|-------------------|
-------------------|-------------------|
-------------------|-------------------|
-------------------|-------------------|
--2--------6--3--5-|-2--------8--3--5--|
--0--0000004-01-03-|-0--0000006-01-03--|
     ......  .  .       ......  .  .


-------------------|----------------|
-------------------|----------------|
-------------------|----------------|
-------------------|----------------|
--2--------6--3--5-|-2-3-5-6----8---|
--0--0000004-01-03-|-0-1-3-4-0006\--|
     ......  .  .            ...


"TELL ME"
---------------------------------------|
---------------------------------------|
---------------------------------------|
---------------------------------------|
--2--------6--------3--------3-----33--|
--0--------4--------1--------1-----11--|
                                   ..

----------------------------------------|
----------------------------------------|
----------------------------------------|
----------------------------------------|
--2--------8--------3----------6-2-5-6--|
--0--------6--------1----------4-1-3-4--|



"No retreat"
-------------------|-------------------|
-------------------|-------------------|
-------------------|-------------------|
-------------------|-------------------|
--2--------6--3--5-|-2--------8--3--5--|
--0--0000004-01-03-|-0--0000006-01-03--|
     ......  .  .       ......  .  .


-------------------|----------------|
-------------------|----------------|
-------------------|----------------|
-------------------|----------------|
--2--------6--3--5-|-2-3-5-6----8---|
--0--0000004-01-03-|-0-1-3-4-0006\--|
     ......  .  .            ...



"Can't find a balance"
----------------------|----------------------|
----------------------|----------------------|
----------------------|----------------------|
----------------------|----------------------|
--2----6-3-5---2----5-|-2----6-3-5---6----8--|
--0-00-4-1-3-0-0-00-3-|-0-00-4-1-3-0-4-00-6--|
    ..       .   ..       ..       .   ..


----------------------|----------------|
----------------------|----------------|
----------------------|----------------|
----------------------|----------------|
--2----6-3-5---2----5-|-2-3-5-6----8---|
--0-00-4-1-3-0-0-00-3-|-0-1-3-4-0006\--|
    ..       .   ..             ...



---------------------------------------|
---------------------------------------|
---------------------------------------|
---------------------------------------|
--2--------6--------3--------5---------|
--0--------4--------1--------3---------|


"look into my eye"
---------------------------------------|
---------------------------------------|
---------------------------------------|
---------------------------------------|
--2--------6--------3--------------8\--|
--0--------4--------1--------------6\--|


---------------------------------------|
---------------------------------------|
---------------------------------------|
---------------------------------------|
--2--------6--------3--------55--------|
--0--------4--------1--------33--------|


"The world is getting colder"
---------------------|---------------------|
---------------------|---------------------|
---------------------|---------------------|
---------------------|---------------------|
--2----6-3-5-5----55-|-2----6-3-5-3----33--|
--0-00-4-1-3-3-00-33-|-0-00-4-1-3-1-00-11--|
    ..         ..        ..         ..


---------------------|----------------------|
---------------------|----------------------|
---------------------|----------------------|
---------------------|----------------------|
--2----6-3-5-5----55-|-2----6-3-55---55---2-|
--0-00-4-1-3-3-00-33-|-0-00-4-1-33---33---0-|
    ..         ..        ..


http://www.facebook.com/ironmindhc
Добавлено: 23.07.2013
Другие материалы по этой песне:
  • Аккорды и текст

Страница создана 23.07.2013
http://primanota.ru/iron-mind/look-into-my-eye-chords.htm
Привет, Гость.
Предлагаем пройти революционный курс по гитаре.
Подарок от PrimaNota.Ru, забирай!