PrimaNota.ru - самый крупный в мире бесплатный архив песенных текстов, аккордов, табулатур и нот


Iron Mind - Guilt - таба, видео

Регистрация Запомнить меня
Войти через:  Facebook Google Twitter Vk Yandex Mail.ru

Iron Mind - Guilt - таба, видео

Печатать
Просмотров: 61
Iron Mind - Guilt
Standard Tuning
. Palm mute
' Vibrato

0.00
|--------------------------------------------------|
|--------------------------------------------------|
|--------------------------------------------------|
|--------------------------------------------------|
|--3--2--------3---5--6-5---3--2--------3---3---5--|
|--1--0--0000--1-0-3--4-3---1--0--0000--1-0-1-0-3--|
         ....    .                ....    .   .

0.21
|------------------------------------------|-3333-|
|------------------------------------------|-3333-|
|------------------------------------------|------|
|------------------------------------------|------|
|--2--2-2--3-----5-----3-2--2-2-2-2-2-2-2--|------|
|--0--0-0--1--0--3--0--1-0--0-0-0-0-0-0-0--|------|
      . .     .     .       . . . . . . .

0.41
|---------------------------------------|-3333-|
|---------------------------------------|-3333-|
|---------------------------------------|------|
|---------------------------------------|------|
|--2------3----5----3-2-----------------|------|
|--0-0000-1-00-3-00-1-0-00000000000000--|------|
     ....   ..   ..     ..............

1.02
Guitar 1.
|---------------------|
|---------------------|
|---------------------|
|---------------------|
|-----2-2----2-2-2-2--|
|--1~-0-0-1~-0-0-0-0--|
      . .    . . . .

Guitar 2.
|----------------|
|----------------|
|----------------|
|----------------|
|--2--3---6--5---|
|--0--1---4--3---|

1.10
|----------------|
|----------------|
|----------------|
|----------------|
|--2--3---6--5---|
|--0--1---4--3---|

1.14
Guitar 1.
|----------------|---|
|----------------|---|
|----------------|---|
|----------------|---|
|--2--3---6--4---|-2-|
|--0--1---4--3---|-0-|

Guitar 2.
|-------------------|---|
|-------------------|---|
|--9--10---13--12---|-9-|
|-------------------|---|
|-------------------|---|
|-------------------|---|

1.42
|---------------------------------------|------|
|---------------------------------------|------|
|---------------------------------------|------|
|---------------------------------------|------|
|--2------3----5----3-2-----------------|-5--5-|
|--0-0000-1-00-3-00-1-0-00000000000000--|-3--3-|
     ....   ..   ..     ..............

2.13
|-------------------------------------------------|
|-------------------------------------------------|
|-------------------------------------------------|
|-------------------------------------------------|
|--2--3---6--5---2--3---6--5--10\--2---pick-------|
|--0--1---4--3---0--1---4--3--8\\--0-------slide--|
Добавлено: 27.08.2013
Другие материалы по этой песне:
  • Аккорды и текст

Страница создана 04.06.2013
http://primanota.ru/iron-mind/guilt-chords.htm
Привет, Гость.
Предлагаем пройти революционный курс по гитаре.
Подарок от PrimaNota.Ru, забирай!