PrimaNota.ru - самый крупный в мире бесплатный архив песенных текстов, аккордов, табулатур и нот


Iron Maiden - The Nomad - текст песни, таба, бас-таба, видео

Регистрация Запомнить меня
Войти через:  Facebook Google Twitter Vk Yandex Mail.ru

Iron Maiden - The Nomad - текст песни, таба, бас-таба, видео

Печатать
Просмотров: 540


THIS IS JUST THE FIRST 2 GUITAR SOLOS FROM "THE NOMAD", I WILL
BE POSTING DAVE'S SOLO VERY SOON ! COMMENTS AND CORRECTIONS ARE WELCOMED


ADRIAN SOLO:
USE THE TREMELO BAR HERE ON THE FIRST FEW NOTES

E:----------------------------------------------------------------------|
B:---13B--13-12-10-12~--9-10-9h109--------------------------------------|
G:----------------------------------10-9-10~~-9--7----------------------|
D:--------------------------------------------------10-9-7-6~-----------|
A:----------------------------------------------------------------------|
E:----------------------------------------------------------------------|



E:---19b19~-17-19-20-19-20~-19-17-16--16-17~---20p16-------------------|
B:---------------------------------------------------17-17h18-15-17----|
G:---------------------------------------------------------------------|
D:---------------------------------------------------------------------|
A:---------------------------------------------------------------------|
E:---------------------------------------------------------------------|



E:---------------------------------------------------------------------|
B:---------------------------------------------------------------------|
G:---17p16p14-14-16-14/13----------------------------------------------|
D:-------------------------14~~~---------------------------------------|
A:---------------------------------------------------------------------|
E:---------------------------------------------------------------------|


JANICK SOLO
THIS IS THE HARDEST SO LISTEN FEW TIMES TO GET THE TIMING AND ALL
GREAT SOLO BY JANICK
E:---------------------------------------------------------------------|
B:---------------------------------------------------------------------|
G:--14B~--12H14P12-11H1211-9-------------------------------------------|
D:----------------------------10-9~-9H10-9H10-9H10-7-------------------|
A:---------------------------------------------------10-9-10~----------|
E:---------------------------------------------------------------------|


                                            NOT SURE ABOUT THIS PART HERE
E:------------------------------------------------------------------------|
B:------------------------------------------------------------------------|
G:------------------------------------------15P14--12-14-16-14-12-14------|
D:---5H7-5H7-------5-------------------------------------------------14---|
A:-----------7P5H7---7P5H7P5H7P5------------------------------------------|
E:-------------------------------7P5H7~-----------------------------------|




E:----------------------------------------------------------------------|
B:----------------------------------------------------------------------|
G:--12-14-16-14-12-14-12-----12-14--------------------------14-16-17----|
D:-----------------------14--------14-13-14-16-14-13-14-16--------------|
A:----------------------------------------------------------------------|
E:----------------------------------------------------------------------|



                          PINCH HERMONIC GOING ON HERE
E:-------------------------------------------------------------17-17B------|
B:----------14-16-17-15--17-16-13-16-13-16-13-16-13------------------------|
G:-16-14-17------------------------------------------16-15-16--------------|
D:-------------------------------------------------------------------------|
A:-------------------------------------------------------------------------|
E:-------------------------------------------------------------------------|


ITS NOT PERFECT BUT CLOSE, BE POSTING DAVE'S SOON
THANKS FOR STOPING BY !
Добавлено: 19.06.2012
Другие материалы по этой песне:

Страница создана 09.04.2012
http://primanota.ru/iron-maiden/the-nomad-chords.htm
Привет, Гость.
Предлагаем пройти революционный курс по гитаре.
Подарок от PrimaNota.Ru, забирай!