PrimaNota.ru - самый крупный в мире бесплатный архив песенных текстов, аккордов, табулатур и нот


Iron Maiden - Speed Of Light - таба, бас-таба, видео

Регистрация Запомнить меня
Войти через:  Facebook Google Twitter Vk Yandex Mail.ru

Iron Maiden - Speed Of Light - таба, бас-таба, видео

Печатать
Просмотров: 334
Уроки эстрадного вокала в Санкт-Петербурге
                              IRON MAIDEN
                            "Speed of Light"
                From the album "The Book of Souls" (2015)

Standard Tuning
Tempo = 175 bpm

INTRO
  H E E E E   +E  E E E E E E E   E E E E E E E E   +E  E E E E E E E
|---------3-|-(3)---------------|-----------------|---------------------|
|-----------|-----6-3-----------|-----------------|---------------------|
|-----------|---------5-3-----3-|-5-6-5-3-5-3---5-|-(5)-6-5-3-5-3-------|
|-----------|-------------5-3---|-------------3---|---------------5-3---|
|-----------|-------------------|-----------------|-----------------3---|
|-----------|-------------------|-----------------|-----------------1---|


MAIN RIFF
  +H     Q  E E   +Q   E E Q.   E   +E  E E E E Q  E   +Q   E E Q.   E   +E  E E E E Q  E
|---------------|-----------------|------------------|-----------------|---------------------|
|---------------|-----------------|------------------|-----------------|---------------------|
|---------------|-----------------|------------------|-----------------|---------------------|
|-(3)-----------|-----------------|------------------|-----------------|---------------------|
|-(3)-----------|------5-4-3----3-|-(3)-3-3---3-5----|------5-4-3----3-|-(3)-3-3---3-5-------|
|-(1)---------3-|-(3)-------------|---------5------3-|-(3)-------------|---------5------0----|


VERSE
    +Q    E E E E E E   +Q    E E E E E E   +Q    E E E E E E   +Q    E E E E E E
||--------------------|-------------------|-------------------|-------------------|
||o-------------------|-------------------|-------------------|-------------------|
||--------------------|-------------------|-------------------|-------------------|
||--------2-2-2-0-----|-------2-2-2-0-----|-------2-2-2-0-----|-------3-3-3-0-----|
||o---------------2---|---------------2---|---------------2---|---------------3---|
||--(0)-------------0-|-(0)-------------0-|-(0)-------------1-|-(1)-------------3-|


  Q  E E Q.   E   +E  E E E E Q  E   +Q   E E Q.   E   +E  E E E E Q  E
|---------------|------------------|-----------------|-------------------||
|---------------|------------------|-----------------|------------------o||
|---------------|------------------|-----------------|-------------------||
|---------------|------------------|-----------------|-------------------||
|----5-4-3----3-|-(3)-3-3---3-5----|------5-4-3----3-|-(3)-3-3---3-5----o||
|-3-------------|---------5------3-|-(3)-------------|---------5------0--||


PRE CHORUS
    Gtr I
    E  E  E  E  E  E  E    E    +E   E  E  E  E  E  E    E
||---------------------------|-----------------------------|
||o---13-13-13-11------------|-----------------------------|
||----------------12------10-|-(10)----10-12---------------|
||-------------------13------|------13-------13-10------10-|
||o--------------------------|---------------------13------|
||---------------------------|-----------------------------|
|
|   Gtr II
|      PM---------------------------------------------------
|      E  E  E  E  E  E E  E         E  E  E  E  E  E E  E
||---------------------------|-----------------------------|
||o--------------------------|-----------------------------|
||---------------------------|-----------------------------|
||-----5--5--5--5--5--5-5--5-|-------5--5--5--5--5--5-5--5-|
||o----3--3--3--3--3--3-3--3-|-------3--3--3--3--3--3-3--3-|
||---------------------------|-----------------------------|


   +E   E  E  E  Q      E  E      E  E  E  E  H
|----------------------------|-----------------------||
|------13-13-11-13-----13-15-|---16-15-13----13-----o||
|----------------------------|------------15---------||
|-(10)-----------------------|-----------------------||
|----------------------------|----------------------o||
|----------------------------|-----------------------||
|
|-------------------------------------------------|
|       E  E  E  E E E  E  E   E  E  E  E  E  E E E
|----------------------------|-----------------------||
|----------------------------|----------------------o||
|----------------------------|-----------------------||
|-------5--5--5--5-5-5--5--5-|-5--5--5--5--5--5-5-5--||
|-------3--3--3--3-3-3--3--3-|-3--3--3--3--3--3-3-3-o||
|----------------------------|-----------------------||


    E  E  E  E  E  E  E  E    +E   E  E  E  E  E  E  E
||-------------------------|---------------------------|
||o---15-15-15-13----------|---------------------------|
||----------------14----12-|-(12)----12-14-------------|
||-------------------15----|------15-------15-12----12-|
||o------------------------|---------------------15----|
||-------------------------|---------------------------|
|
|   Gtr II
|   PM--------------------------------------------------
|   E  E  E  E  E  E  E  E     E   E  E  E  E  E  E  E
||-------------------------|---------------------------|
||o------------------------|---------------------------|
||-------------------------|---------------------------|
||--7--7--7--7--7--7--7--7-|---7---7--7--7--7--7--7--7-|
||o-5--5--5--5--5--5--5--5-|---5---5--5--5--5--5--5--5-|
||-------------------------|---------------------------|


   +E   E  E  E  Q    E  E    E  E  E  E  H
|--------------------------|------------------------||
|------15-15-13-15---15-17-|-18-17-15----15--------o||
|--------------------------|----------17------------||
|-(12)---------------------|------------------------||
|--------------------------|-----------------------o||
|--------------------------|------------------------||
|
|-----------------------------------------------|
|   E   E  E  E  E E  E  E    E  E  E  E  E E E E
|--------------------------|------------------------||
|--------------------------|-----------------------o||
|--------------------------|------------------------||
|---7---7--7--7--7-7--7--7-|--7--7--7--7--7-7-7-7---||
|---5---5--5--5--5-5--5--5-|--5--5--5--5--5-5-5-5--o||
|--------------------------|------------------------||


CHORUS
  W          +W           W          +W           W          +W           W      E E E E EEEE
|-3--------|-(3)--------|----------|------------|----------|------------|------|--------------------|
|-3--------|-(3)--------|----------|------------|----------|------------|------|--------------------|
|-0--------|-(0)--------|-3--------|-(3)--------|----------|------------|-5----|--------------------|
|-0--------|-(0)--------|-3--------|-(3)--------|-3--------|-(3)--------|-5----|--------------------|
|-2--------|-(2)--------|-1--------|-(1)--------|-3--------|-(3)--------|-3----|-3-4-3-1-3-1--------|
|-3--------|-(3)--------|----------|------------|-1--------|-(1)--------|------|-------------1-3----|

SOLO 1
---IN PROGRESS---

SOLO 2 (not exact)
                                        |---3---| |-3--|
  H    Q  E  E        +Q       Q        E    E  E E E  E
|------------------|-------------------------7-10-9-7----|
|-----------10b12==|=(10)b12--10pb12===10b12----------10-|
|------------------|-------------------------------------|
|------------------|-------------------------------------|
|------------------|-------------------------------------|
|------------------|-------------------------------------|


                         ~
  |-3--| |---3---| |-3-|
  E  E E E    E  E E E E Q    E E E E E E Q
|-7-------------------------|-----------------|
|---10-7------7-------------|-----------------|
|--------9b11---10-9-7---7--|---7-7S6-6s2-2---|
|----------------------9----|-9---------------|
|---------------------------|-----------------|
|---------------------------|-----------------|


                                                                  ~~~~~
                                           |-3--|  |--3--|
  E E E E S S E E E   E E S S E E E E E    Q Q  Q  Q  Q  Q    Q   H.
|-------------------|-------------------|------------------|--------------|
|-------------------|-------------------|------------------|--------------|
|-------------------|-----6h7p6---6-7-9-|-11-9-11-12-11-12-|-14--14b16----|
|-----7---6h7p6---6-|-7-9-------9-------|------------------|--------------|
|-7-9---9-------9---|-------------------|------------------|--------------|
|-------------------|-------------------|------------------|--------------|


                                                                       ~~
                           |--3--|           |--3--|
   E  E  E  Q   Q.         Q  Q  Q  S  S  E  E  E  E    S  S  E  E  E  H
|-------14-17--17b19====|=17-15-17-15h17p15-14-15-14-|----------------------|
|----15-----------------|----------------------------|-15h17p15----14-------|
|-16--------------------|----------------------------|----------16----16----|
|-----------------------|----------------------------|----------------------|
|-----------------------|----------------------------|----------------------|
|-----------------------|----------------------------|----------------------|


   Q   E  E  E  E  E  E     E  E  E  E  E  E  E  E
|------------------------|-------------------------|
|------------------------|-------------------------|
|-16--16-14--------------|-------------------------|
|-----------16-15-14-----|----14S12----14-12----12-|
|--------------------17--|-14-------14-------14----|
|------------------------|-------------------------|


                                      ~~~~~
   E  E  E  E  E  E  E  E    E  E  E  Q     E
|-------------------------|-14-15-17-17b19-----|
|----------------14-15-17-|--------------------|
|----------14-16----------|--------------------|
|-16-14-16----------------|--------------------|
|-------------------------|--------------------|
|-------------------------|--------------------|
Добавлено: 19.12.2015
Другие материалы по этой песне:

Страница создана 05.11.2015
http://primanota.ru/iron-maiden/speed-of-light-chords.htm
Привет, Гость.
Предлагаем пройти революционный курс по гитаре.
Подарок от PrimaNota.Ru, забирай!