PrimaNota.ru - самый крупный в мире бесплатный архив песенных текстов, аккордов, табулатур и нот


Iron Maiden - Run To The Hills Rock In Rio Live - бас-таба, видео

Регистрация Запомнить меня
Войти через:  Facebook Google Twitter Vk Yandex Mail.ru

Iron Maiden - Run To The Hills Rock In Rio Live - бас-таба, видео

Печатать
Просмотров: 161
Run to the Hills Live (Rock in Rio)
by Iron Maiden
Bass Tab


| \  slide down
| h  hammer-on


Intro: 
======
G|----------------|----------------|----------------|----------------|
D|----------------|----------------|----------------|----------------|
A|----------------|----------------|----------------|----------------|
E|----------------|----------------|----------------|----------------|
===========  Drums  ------->>>>

(4x) (These are 10th, 12th and 14th frets, not 1, 2, 4, etc..)
G|----------------|----------------|---------------|---------------||
D|---12h14-14-12--|-12-12-12h14\---|-10-10-10h12---|---------------||
A|(0)-------------|----------------|---------------|-10-10-10h12---||
E|----------------|----------------|---------------|---------------||

(1x)
G|----------------|----------------|------------------|--------------|
D|---12h14-14-12--|-12-12-12h14\---|-10-10-10h12-(12)-|-5-5----------|
A|(0)-------------|----------------|------------------|------5-------|
E|----------------|----------------|------------------|--------------|


Verse Lead-In:
==============
G|----------------------|----------------------|
D|----------------------|----------------------|
A|-5-55-5-55-5-55-5-55--|-5-55-5-55-5-55-5-55--|
E|----------------------|----------------------|


Verse (2x):
===========
G|----------------------|----------------------|
D|----------------------|----------------------|
A|-5-55-5-55-5-55-5-55--|-5-55-5-55-5-55-5-0---|
E|----------------------|----------------------|

G|----------------------|----------------------||
D|----------------------|----------------------||
A|-3-33-3-33-3-33-3-33--|-2-2-3---2-2-3--------||
E|----------------------|----------------------||



Bridge:
=======
G|----------------------|----------------------|
D|----------------------|----------------------|
A|-0-00-0-00-0-00-0-00--|-3-33-3-33-3-33-3-0---|
E|----------------------|----------------------|

G|----------------------|----------------------|----------------------|
D|----------------------|----------------------|----------------------|
A|----------------------|-5-55-5-55-5-55-5-55--|-5-55-5-55-5-55-5\----|
E|-1-11-1-11-1-11-1-0---|----------------------|----------------------|



Chorus (2x):
============
G|----------------------|----------------------|
D|----------------------|----------------------|
A|----------------------|----------------------|
E|-3-33-3-33-3-33-3-33--|-3-33-3-33-3-33-3-0---|

G|----------------------|----------------------|
D|----------------------|----------------------|
A|----------------------|----------------------|
E|-1-11-1-11-1-11-1-11--|-0-00-1---0-00-1------|

G|----------------------|----------------------|----------------------|
D|----------------------|----------------------|----------------------|
A|-3-33-3-33-3-33-3-33--|-3-33-3-33-3-33-3-0---|----------------------|
E|----------------------|----------------------|-3-33-3-33-3-33-3-33--|

1st Time:
G|------------------||
D|------------------||
A|------------------||
E|-3-000-111-222-33-||

2nd Time:
G|------------------|
D|------------------|
A|------------------|
E|-3----0----1----2-|



(Repeat Verse)

(Repeat Bridge)

(Repeat Chorus)


Guitar Lead (4x):
=================
G|---------------------|---------------------|---------------------|
D|------------------4--|-5-55-5-55-5-55-5-4--|---------------------|
A|-7-77-7-77-7-77-7----|---------------------|-3-33-3-33-3-33-3-33-|
E|---------------------|---------------------|---------------------|

First 3 Times:
G|--------------------||
D|--------------------||
A|-3-2--3-2--3-2------||
E|----------------3-2-||

Last Time:
G|--------------------|
D|--------------------|
A|-3-2--3-2--3-2------|
E|-----------------3--|



Interlude (Bass "Lead") (3x):
=============================
(He runs 'em pretty quick, so I separated them by beats for ease of reading)
G|---------------------|---------------------|
D|-7777-7777-9777-9777-|-5555-5555-7555-7555-|
A|---------------------|---------------------|
E|---------------------|---------------------|

G|-------------------------------------|-------------------------------------||
D|-10101010-10101010-11101010-11101010-|-12121212-12121212-14121212-14121212-||
A|-------------------------------------|-------------------------------------||
E|-------------------------------------|-------------------------------------||
           (10th & 11th frets)                  (12th & 14th frets)


(After the 3rd time of the above, add this on):
G|-------------------------------------|-12121212-12121212-14121212-14121212-|
D|-14141414-14141414-16141414-16141414-|-------------------------------------|
A|-------------------------------------|-------------------------------------|
E|-------------------------------------|-------------------------------------|
           (14th & 16th frets)                  (12th & 14th frets)

G|-14141414-14141414-16141414-16141414-|-16161616-16161616-16161616--16\-----|
D|-------------------------------------|-------------------------------------|
A|-------------------------------------|-------------------------------------|
E|-------------------------------------|-------------------------------------|
           (14th & 16th frets)                      (16th fret)



(Repeat Chorus)

Then:
=====
G|----------------------|----------------------|
D|----------------------|----------------------|
A|----------------------|----------------------|
E|-3-33-3-33-3-33-3-33--|-3-33-3-33-3-33-3-0---|

G|----------------------|----------------------|
D|----------------------|----------------------|
A|----------------------|----------------------|
E|-1-11-1-11-1-11-1-11--|-0-00-1---0-00-1------|

G|---------------------------------------------|
D|---------------------------------------------|
A|----------------------3----------------------|
E|---------------------------------------------|

G|---------------------|---------------------|
D|---------------------|---------------------|
A|-----2------0000---0-|---------------------|
E|---------------------|-3333-3333-3333-3333-|

G|---------------------|---------------------|
D|-53---3--------------|---------------------|
A|---5---53--53--------|---------------------|
E|-------------5--3----|-3333-3333-3333-3333-|

G|---------------------|---------------------|
D|---------------------|---------------------|
A|---------------------|---------------------|
E|-3333-3333-3333-3333-|-3333-3333-3333-3333-|

G|---------------------|---------------------|
D|---------------------|---------------------|
A|---------------------|---------------------|
E|-3333-3333-3333-3333-|----------3\---------|

(The ending actually drags on a little longer than what I have written,
 but you get the gist, right?) ;)

Добавлено: 27.02.2016
Другие материалы по этой песне:
  • Аккорды и текст

Страница создана 27.02.2016
http://primanota.ru/iron-maiden/run-to-hills-rock-in-rio-live-chords.htm
Привет, Гость.
Предлагаем пройти революционный курс по гитаре.
Подарок от PrimaNota.Ru, забирай!