PrimaNota.ru - самый крупный в мире бесплатный архив песенных текстов, аккордов, табулатур и нот


Iron Maiden - Rime Of The Anciente Mariner - таба, видео

Регистрация Запомнить меня
Войти через:  Facebook Google Twitter Vk Yandex Mail.ru

Iron Maiden - Rime Of The Anciente Mariner - таба, видео

Печатать
Просмотров: 252
As recorded by Iron Maiden
(From the 1984 Album POWERSLAVE)


Transcribed by Lucas Romagnoli

 Music by Steve Harris

C5
x 3 5 x x x


Gtr I (E A D G B E) - 'Lead Guitar'
Gtr II (E A D G B E) - 'Rhythm Guitar'
Gtr III (E A D G B E) - 'Rhythm Guitar 2'
Gtr IV (E A D G B E) - 'Chorus'
Gtr V (E A D G B E) - 'Chorus 2'
Gtr VI (E A D G B E) - 'Clean'


 Intro
  Moderate Rock Q=112
 4/4
  Gtr I
                             PM|   PM|   PM|     PM|
  H    Q  S S S S   Q      E S S E S S E S S   E S S E E Q  Q
|-----------------|--------------------------|------------------|
|-----------------|--------------------------|------------------|
|-----------------|--------------------------|------------------|
|---------5p4-----|--------------------------|-----------5--7---|
|-------------7-5-|-7\-----------------------|-----------3--5---|
|-----------------|--------0-0-0-0-0-0-0-0-0-|-0-0-0-0-0--------|
|
| Gtr II
|                            PM|   PM|   PM|     PM|
| H    Q  S S S S   E  S S E S S E S S E S S   E S S E E Q  Q
|-----------------|--------------------------|------------------|
|-----------------|--------------------------|------------------|
|-----------------|--------------------------|------------------|
|---------5p4-----|--------9-----9-----9-----|-9-----9-9-5--7---|
|-------------7-5-|-7------7-----7-----7-----|-7-----7-7-3--5---|
|-----------------|----0-0---0-0---0-0---0-0-|---0-0------------|


     PM|   PM|   PM|   PM|     PM|
  E  S S E S S E S S E S S   E S S E E Q  Q
|--------------------------|-----------------|
|--------------------------|-----------------|
|--------------------------|-----------------|
|-9------------------------|-----------5--7--|
|-7------------------------|-----------3--5--|
|----0-0-0-0-0-0-0-0-0-0-0-|-0-0-0-0-0-------|
|
|          PM|   PM|   PM|     PM|
| Q      E S S E S S E S S   E S S E E Q  Q
|--------------------------|-----------------|
|--------------------------|-----------------|
|--------------------------|-----------------|
|-9\-----9-----9-----9-----|-9-----9-9-5--7--|
|-7\-----7-----7-----7-----|-7-----7-7-3--5--|
|----------0-0---0-0---0-0-|---0-0-----------|


  S S  S S S S  S S S S  S S S S  S S
|-------------------------------------|
|-------------------------------------|
|-------------------------------------|
|-5p4----4-5p4----4-5p4----4-5p4----4-|
|------7--------7--------7--------7---|
|-------------------------------------|
|
| S S  S S S S  S S S S  S S S S  S S
|-------------------------------------|
|-------------------------------------|
|-------------------------------------|
|-9p7----7-9p7----7-9p7----7-9p7----7-|
|-----10-------10-------10-------10---|
|-------------------------------------|


  S S  S S S S  S S E E S  S S  S
|---------------------------------|
|---------------------------------|
|---------------------------------|
|-5p4----4-5p4----4-5-5------4----|
|------7--------7-------5--7----7-|
|---------------------------------|
|
| S S  S S S S  S S E E S  S S  S
|---------------------------------|
|---------------------------------|
|---------------------------------|
|-9p7----7-9p7----7-9-9------7----|
|-----10-------10-------9-10---10-|
|---------------------------------|


        PM|   PM|   PM|   PM|     PM|   PM|   PM|
   +E   S S E S S E S S E S S   E S S E S S E S S E E
|-----------------------------|-----------------------||
|-----------------------------|-----------------------||
|-----------------------------|-----------------------||
|-----------------------------|---------------------7-||
|--(7)\-----------------------|---------------------5-||
|-------0-0-0-0-0-0-0-0-0-0-0-|-0-0-0-0-0-0-0-0-0-0---||
|
|       PM|   PM|   PM|   PM|     PM|   PM|   PM|
|  +E   S S E S S E S S E S S   E S S E S S E S S E E
|-----------------------------|-----------------------||
|-----------------------------|-----------------------||
|-----------------------------|-----------------------||
|-----------9-----9-----9-----|-9-----9-----9-----9-7-||
|-(10)------7-----7-----7-----|-7-----7-----7-----7-5-||
|-------0-0---0-0---0-0---0-0-|---0-0---0-0---0-0-----||


   Verse 1 and 2
      PM|   PM|   PM|   PM|     PM|   PM|   PM|
    E S S E S S E S S E S S   E S S E S S E S S S S S S
||--------------------------|---------------------------|
||o-------------------------|---------------------------|
||--------------------------|---------------------------|
||--9-----------------------|-----------------------4---|
||o-7-----------------------|-------------------5h7---5-|
||----0-0-0-0-0-0-0-0-0-0-0-|-0-0-0-0-0-0-0-0-0---------|
|
|     PM|   PM|   PM|   PM|     PM|   PM|   PM|
|   E S S E S S E S S E S S   E S S E S S E S S S S S S
||--------------------------|---------------------------|
||o-------------------------|---------------------------|
||--------------------------|---------------------------|
||--9-----9-----9-----9-----|-9-----9-----9---------4---|
||o-7-----7-----7-----7-----|-7-----7-----7-----5h7---5-|
||----0-0---0-0---0-0---0-0-|---0-0---0-0---0-0---------|


           PM|   PM|                                    PM|   PM|   PM|
  Q      E S S E S S E E   H    +Q   S S S S   Q      E S S E S S E S S
|------------------------|-------------------|--------------------------|
|------------------------|-------------------|--------------------------|
|------------------------|-------------------|--------------------------|
|------------------------|-5----(5)------4---|--------------------------|
|-7\---------------------|-3----(3)--5h7---5-|-7\-----------------------|
|--------0-0-0-0-0-0-0-0-|-------------------|--------0-0-0-0-0-0-0-0-0-|
|
|          PM|   PM|                              PM|   PM|   PM|   PM|
| E  S S E S S E S S E E   H    +Q   S S S S   E  S S E S S E S S E S S
|------------------------|-------------------|--------------------------|
|------------------------|-------------------|--------------------------|
|------------------------|-------------------|--------------------------|
|--------9-----9-----9-9-|-5----(5)------4---|--------9-----9-----9-----|
|-7------7-----7-----7-7-|-3----(3)--5h7---5-|-7------7-----7-----7-----|
|----0-0---0-0---0-0-----|-------------------|----0-0---0-0---0-0---0-0-|


    PM|   PM|   PM|
  E S S E S S E S S E E   W
|-----------------------|-----------------------|
|-----------------------|-----------------------|
|-----------------------|-----------------------|
|-----------------------|-5---------------------|
|-----------------------|-3---------------------|
|-0-0-0-0-0-0-0-0-0-0-0-|-----------------------|
|
|   PM|   PM|   PM|         PM|   PM|   PM|
| E S S E S S E S S E E   E S S E S S E S S E E
|-----------------------|-----------------------|
|-----------------------|-----------------------|
|-----------------------|-----------------------|
|-9-----9-----9-----9-9-|-5-----5-----5-----5-5-|
|-7-----7-----7-----7-7-|-3-3-3-3-3-3-3-3-3-3-3-|
|---0-0---0-0---0-0-----|-----------------------|


  H           +Q     S  S  S  S
|--------------------------------|
|-------------------15p13-15p13--|
|--------------------------------|
|-7-----------(7)----------------|
|-5-----------(5)----------------|
|--------------------------------|
|
|   PM|   PM|
| E S S E S S  E  E  S  S  S  S
|--------------------------------|
|--------------------------------|
|--------------------------------|
|-7-----7------7--7--------4-----|
|-5-5-5-5-5-5--5--5--5h=7-----7--|
|--------------------------------|


                          PM|   PM|     PM|   PM|   PM|
   S    S  S  S  Q      E S S E S S   E S S E S S E S S E E
|-----------------------------------|------------------------||
|-12h==15-12h15-17\-----------------|-----------------------o||
|-----------------------------------|------------------------||
|-----------------------------------|---------------------7--||
|-----------------------------------|---------------------5-o||
|-----------------------0-0-0-0-0-0-|-0-0-0-0-0-0-0-0-0-0----||
|
|                   PM|   PM|   PM|     PM|   PM|   PM|
| +E       S  S  E  S S E S S E S S   E S S E S S E S S E E
|-----------------------------------|------------------------||
|-----------------------------------|-----------------------o||
|-----------------------------------|------------------------||
|----------------9------9-----9-----|-9-----9-----9-----9-7--||
|-(7)\-----------7------7-----7-----|-7-----7-----7-----7-5-o||
|----------0--0-----0-0---0-0---0-0-|---0-0---0-0---0-0------||


 Interlude
  S S  S S E S S S S  S S Q
|----------------------------|
|----------------------------|
|-------------------------7--|
|-9p7----7-9-9-9-9p7----7----|
|-----10-------------10------|
|----------------------------|
|
| S S  S S E S S S S  S S Q
|----------------------------|
|----------------------------|
|-------------------------4--|
|-5p4----4-5-5-5-5p4----4----|
|------7--------------7------|
|----------------------------|


  S S  S S E S S S S  S S Q    S S  S S E S S S S  S S Q
|----------------------------|----------------------------|
|----------------------------|----------------------------|
|----------------------------|-------------------------7--|
|-9p7----7-9-9-9-9p7----7----|-9p7----7-9-9-9-9p7----7----|
|-----10-------------10---9--|-----10-------------10------|
|----------------------------|----------------------------|
|
| S S  S S E S S S S  S S Q    S S  S S E S S S S  S S Q
|----------------------------|----------------------------|
|----------------------------|----------------------------|
|----------------------------|-------------------------4--|
|-5p4----4-5-5-5-5p4----4----|-5p4----4-5-5-5-5p4----4----|
|------7--------------7---5--|------7--------------7------|
|----------------------------|----------------------------|


  S S  S S E S S E E S  S S  S
|------------------------------|
|------------------------------|
|------------------------------|
|-9p7----7-9-9-9-9-9------7----|
|-----10-------------9-10---10-|
|------------------------------|
|
| S S  S S E S S E E S  S S  S
|------------------------------|
|------------------------------|
|------------------------------|
|-5p4----4-5-5-5-5-5------4----|
|------7-------------5--7----7-|
|------------------------------|


        PM|   PM|   PM|   PM|     PM|   PM|   PM|
   +E   S S E S S E S S E S S   E S S E S S E S S E +E
|-----------------------------|--------------------------|
|-----------------------------|--------------------------|
|-----------------------------|--------------------------|
|-----------------------------|--------------------------|
|-(10)\-----------------------|--------------------------|
|-------0-0-0-0-0-0-0-0-0-0-0-|-0-0-0-0-0-0-0-0-0-0-(0)--|
|
|       PM|   PM|   PM|   PM|     PM|   PM|   PM|
|  +E   S S E S S E S S E S S   E S S E S S E S S E +E
|-----------------------------|--------------------------|
|-----------------------------|--------------------------|
|-----------------------------|--------------------------|
|-----------9-----9-----9-----|-9-----9-----9-----9-(9)--|
|--(7)\-----7-----7-----7-----|-7-----7-----7-----7-(7)--|
|-------0-0---0-0---0-0---0-0-|---0-0---0-0---0-0--------|


  S S  S S E S S S S  S S Q
|----------------------------|
|----------------------------|
|----------------------------|
|-9p7----7-9-9-9-9p7----7-9--|
|-----10-------------10------|
|----------------------------|
|
| S S  S S E S S S S  S S Q
|----------------------------|
|----------------------------|
|----------------------------|
|-5p4----4-5-5-5-5p4----4-5--|
|------7--------------7------|
|----------------------------|


   S  S  S  S  E  S  S  S  S  S  S  Q    S S  S S E S S S S  S S Q
|--------------------------------------|----------------------------|
|--------------------------------------|----------------------------|
|--------------------------------------|----------------------------|
|-12p10----10-12-12-12-12p10----10-12--|-9p7----7-9-9-9-9p7----7-9--|
|-------14-------------------14--------|-----10-------------10------|
|--------------------------------------|----------------------------|
|
|  S  S  S  S  E  S  S  S  S  S  S  Q    S S  S S E S S S S  S S Q
|--------------------------------------|----------------------------|
|--------------------------------------|----------------------------|
|--------------------------------------|----------------------------|
|--7p=5-----5--7--7--7--7p=5-----5--7--|-5p4----4-5-5-5-5p4----4-5--|
|--------9--------------------9--------|------7--------------7------|
|--------------------------------------|----------------------------|


   S  S  S  S  E  S  S  E  E  S  S  S  S
|----------------------------------------|
|----------------------------------------|
|----------------------------------------|
|-12p10----10-12-12-12-12-12-------10----|
|-------14-------------------12-14----14-|
|----------------------------------------|
|
|  S  S  S  S  E  S  S  E  E  S  S  S  S
|----------------------------------------|
|----------------------------------------|
|----------------------------------------|
|--7p=5-----5--7--7--7--7--7--------4----|
|--------9--------------------5--7-----7-|
|----------------------------------------|


        PM|   PM|   PM|   PM|     PM|   PM|   PM|
   +E   S S E S S E S S E S S   E S S E S S E S S E E
|-----------------------------|------------------------|
|-----------------------------|------------------------|
|-----------------------------|------------------------|
|-----------------------------|---------------------7--|
|-(14)\-----------------------|---------------------5--|
|-------0-0-0-0-0-0-0-0-0-0-0-|-0-0-0-0-0-0-0-0-0-0----|
|
|       PM|   PM|   PM|   PM|     PM|   PM|   PM|
|  +E   S S E S S E S S E S S   E S S E S S E S S E E
|-----------------------------|------------------------|
|-----------------------------|------------------------|
|-----------------------------|------------------------|
|-----------9-----9-----9-----|-9-----9-----9-----9-7--|
|--(7)\-----7-----7-----7-----|-7-----7-----7-----7-5--|
|-------0-0---0-0---0-0---0-0-|---0-0---0-0---0-0------|


   Verse 3 and 4
      PM|   PM|   PM|   PM|     PM|   PM|   PM|
    E S S E S S E S S E S S   E S S E S S E S S S S S S  3x
||--------------------------|----------------------------||
||o-------------------------|---------------------------o||
||--------------------------|----------------------------||
||--------------------------|-----------------------4----||
||o-7-----------------------|-------------------5h7---5-o||
||----0-0-0-0-0-0-0-0-0-0-0-|-0-0-0-0-0-0-0-0-0----------||
|
|     PM|   PM|   PM|   PM|     PM|   PM|   PM|
|   E S S E S S E S S E S S   E S S E S S E S S S S S S  3x
||--------------------------|----------------------------||
||o-------------------------|---------------------------o||
||--------------------------|----------------------------||
||--9-----9-----9-----9-----|-9-----9-----9---------4----||
||o-7-----7-----7-----7-----|-7-----7-----7-----5h7---5-o||
||----0-0---0-0---0-0---0-0-|---0-0---0-0---0-0----------||


    PM|   PM|   PM|   PM|     PM|   PM|   PM|
  E S S E S S E S S E S S   E S S E S S E S S E E
|-------------------------|-----------------------|
|-------------------------|-----------------------|
|-------------------------|-----------------------|
|-------------------------|-----------------------|
|-7-----------------------|-----------------------|
|---0-0-0-0-0-0-0-0-0-0-0-|-0-0-0-0-0-0-0-0-0-0-0-|
|
|   PM|   PM|   PM|   PM|     PM|   PM|   PM|
| E S S E S S E S S E S S   E S S E S S E S S E E
|-------------------------|-----------------------|
|-------------------------|-----------------------|
|-------------------------|-----------------------|
|-9-----9-----9-----9-----|-9-----9-----9-----9-9-|
|-7-----7-----7-----7-----|-7-----7-----7-----7-7-|
|---0-0---0-0---0-0---0-0-|---0-0---0-0---0-0-----|


    W                       W
||------------------------|-------------------------|
||o-----------------------|-------------------------|
||------------------------|-------------------------|
||--5---------------------|-7-----------------------|
||o-3---------------------|-5-----------------------|
||------------------------|-------------------------|
|
|     PM|   PM|   PM|         PM|   PM|   PM|
|   E S S E S S E S S E E   E S S E S S E S S E E
||------------------------|-------------------------|
||o-----------------------|-------------------------|
||------------------------|-------------------------|
||--5-----5-----5-----5-5-|-7-----7-----7-----7-7---|
||o-3-3-3-3-3-3-3-3-3-3-3-|-5-5-5-5-5-5-5-5-5-5-5---|
||------------------------|-------------------------|


                                            ~
  E S S S S S S E S S E E   +E  S S S S S S H
|-------------------------|-----------------------||-|
|-------------------------|----------------------o||-|
|-4-4-4-7-5p4---4-4-4---4-|-(4)-4-4-7-5p4---4-----||-|
|-------------7-------7---|---------------7-------||-|
|-------------------------|----------------------o||-|
|-------------------------|-----------------------||-|
|
|                                           ~
| E S S S S S S E S S E E   +E  S S S S S S H
|-------------------------|-----------------------||-|
|-------------------------|----------------------o||-|
|-------------------------|-----------------------||-|
|-------5p4---------------|---------5p4-----------||-|
|-7-7-7-----7-5-7-7-7-5-7-|-(7)-7-7-----7-5-7----o||-|
|-------------------------|-----------------------||-|


      PM|   PM|   PM|   PM|     PM|   PM|   PM|
    E S S E S S E S S E S S   E S S E S S E S S S S S S    3x
||--------------------------|------------------------------||
||o-------------------------|-----------------------------o||
||--------------------------|------------------------------||
||--------------------------|-----------------------4------||
||o-7-----------------------|-------------------5h7---5---o||
||----0-0-0-0-0-0-0-0-0-0-0-|-0-0-0-0-0-0-0-0-0------------||
|
|     PM|   PM|   PM|   PM|     PM|   PM|   PM|
|   E S S E S S E S S E S S   E S S E S S E S S S S S S    3x
||--------------------------|------------------------------||
||o-------------------------|-----------------------------o||
||--------------------------|------------------------------||
||--9-----9-----9-----9-----|-9-----9-----9---------4------||
||o-7-----7-----7-----7-----|-7-----7-----7-----5h7---5---o||
||----0-0---0-0---0-0---0-0-|---0-0---0-0---0-0------------||


    PM|   PM|   PM|   PM|     PM|   PM|   PM|
  E S S E S S E S S E S S   E S S E S S E S S E E
|-------------------------|-----------------------|
|-------------------------|-----------------------|
|-------------------------|-----------------------|
|-------------------------|-----------------------|
|-7-----------------------|-----------------------|
|---0-0-0-0-0-0-0-0-0-0-0-|-0-0-0-0-0-0-0-0-0-0-0-|
|
|   PM|   PM|   PM|   PM|     PM|   PM|   PM|
| E S S E S S E S S E S S   E S S E S S E S S E E
|-------------------------|-----------------------|
|-------------------------|-----------------------|
|-------------------------|-----------------------|
|-9-----9-----9-----9-----|-9-----9-----9-----9-9-|
|-7-----7-----7-----7-----|-7-----7-----7-----7-7-|
|---0-0---0-0---0-0---0-0-|---0-0---0-0---0-0-----|


    W                       W
||------------------------|-------------------------|
||o-----------------------|-------------------------|
||------------------------|-------------------------|
||--5---------------------|-7-----------------------|
||o-3---------------------|-5-----------------------|
||------------------------|-------------------------|
|
|     PM|   PM|   PM|         PM|   PM|   PM|
|   E S S E S S E S S E E   E S S E S S E S S E E
||------------------------|-------------------------|
||o-----------------------|-------------------------|
||------------------------|-------------------------|
||--5-----5-----5-----5-5-|-7-----7-----7-----7-7---|
||o-3-3-3-3-3-3-3-3-3-3-3-|-5-5-5-5-5-5-5-5-5-5-5---|
||------------------------|-------------------------|


                                            ~
  E S S S S S S E S S E E   +E  S S S S S S H
|-------------------------|-----------------------||
|-------------------------|----------------------o||
|-4-4-4-7-5p4---4-4-4---4-|-(4)-4-4-7-5p4---4-----||
|-------------7-------7---|---------------7-------||
|-------------------------|----------------------o||
|-------------------------|-----------------------||
|
|                                           ~
| E S S S S S S E S S E E   +E  S S S S S S H
|-------------------------|-----------------------||
|-------------------------|----------------------o||
|-------------------------|-----------------------||
|-------5p4---------------|---------5p4-----------||
|-7-7-7-----7-5-7-7-7-5-7-|-(7)-7-7-----7-5-7----o||
|-------------------------|-----------------------||


 Verse 5
    PM|   PM|   PM|   PM|     PM|   PM|   PM|
  E S S E S S E S S E S S   E S S E S S E S S S S S S
|-------------------------|------------------------------|
|-------------------------|------------------------------|
|-------------------------|------------------------------|
|-9-----------------------|-----------------------4------|
|-7-----------------------|-------------------5h7---5----|
|---0-0-0-0-0-0-0-0-0-0-0-|-0-0-0-0-0-0-0-0-0------------|
|
|   PM|   PM|   PM|   PM|     PM|   PM|   PM|
| E S S E S S E S S E S S   E S S E S S E S S S S S S
|-------------------------|------------------------------|
|-------------------------|------------------------------|
|-------------------------|------------------------------|
|-9-----9-----9-----9-----|-9-----9-----9---------4------|
|-7-----7-----7-----7-----|-7-----7-----7-----5h7---5----|
|---0-0---0-0---0-0---0-0-|---0-0---0-0---0-0------------|


           PM|   PM|   PM|     PM|   PM|   PM|
  Q      E S S E S S E S S   E S S E S S E S S E E
|--------------------------|-----------------------|
|--------------------------|-----------------------|
|--------------------------|-----------------------|
|--------------------------|-----------------------|
|-7\-----------------------|-----------------------|
|--------0-0-0-0-0-0-0-0-0-|-0-0-0-0-0-0-0-0-0-0-0-|
|
|    PM|   PM|   PM|   PM|     PM|   PM|   PM|
| E  S S E S S E S S E S S   E S S E S S E S S E E
|--------------------------|-----------------------|
|--------------------------|-----------------------|
|--------------------------|-----------------------|
|--------9-----9-----9-----|-9-----9-----9-----9-9-|
|-7------7-----7-----7-----|-7-----7-----7-----7-7-|
|----0-0---0-0---0-0---0-0-|---0-0---0-0---0-0-----|


  W                         +H            +Q      S S S S
|-------------------------|-------------------------------|
|-------------------------|-------------------------------|
|-------------------------|-------------------------------|
|-7-----------------------|-(7)-----------(7)---------4---|
|-5-----------------------|-(5)-----------(5)-----5h7---5-|
|-------------------------|-------------------------------|
|
|   PM|   PM|   PM|   PM|       PM|   PM|     PM|
| E S S E S S E S S E S S    E  S S E S S  E  S S E   E
|-------------------------|-------------------------------|
|-------------------------|-------------------------------|
|-------------------------|-------------------------------|
|-7-----7-----7-----7-----|--7------7------7------7---7---|
|-5-5-5-5-5-5-5-5-5-5-5-5-|--5--5-5-5-5-5--5--5-5-5---5---|
|-------------------------|-------------------------------|


             PM|   PM|   PM|     PM|   PM|   PM|
    Q      E S S E S S E S S   E S S E S S E S S E E
||---------------------------|-----------------------|
||o--------------------------|-----------------------|
||---------------------------|-----------------------|
||---------------------------|-----------------------|
||o-7\-----------------------|-----------------------|
||---------0-0-0-0-0-0-0-0-0-|-0-0-0-0-0-0-0-0-0-0-0-|
|
|      PM|   PM|   PM|   PM|     PM|   PM|   PM|
|   E  S S E S S E S S E S S   E S S E S S E S S E E
||---------------------------|-----------------------|
||o--------------------------|-----------------------|
||---------------------------|-----------------------|
||--9------9-----9-----9-----|-9-----9-----9-----9-9-|
||o-7------7-----7-----7-----|-7-----7-----7-----7-7-|
||-----0-0---0-0---0-0---0-0-|---0-0---0-0---0-0-----|


  S S  S S S S  S S S S  S S S S  S S   S S  S S S S  S S E E S  S S  S
|-------------------------------------|-----------------------------------||
|-------------------------------------|----------------------------------o||
|-------------------------------------|-----------------------------------||
|-5p4----4-5p4----4-5p4----4-5p4----4-|-5p4----4-5p4----4-5-5------4------||
|------7--------7--------7--------7---|------7--------7-------5--7----7--o||
|-------------------------------------|-----------------------------------||
|
| S S  S S S S  S S S S  S S S S  S S   S S  S S S S  S S E E S  S S  S
|-------------------------------------|-----------------------------------||
|-------------------------------------|----------------------------------o||
|-------------------------------------|-----------------------------------||
|-9p7----7-9p7----7-9p7----7-9p7----7-|-9p7----7-9p7----7-9-9------7------||
|-----10-------10-------10-------10---|-----10-------10-------9-10---10--o||
|-------------------------------------|-----------------------------------||


   Verse 6 and 7
    Faster Q=164
                                |-3-| |-3-|  |--3--| |-3--|
    E H    Q.     E H    Q.     E E E E E E  E  E  E E  E E
||--------------|-------------|-----------------------------|
||o-------------|-------------|-----------------------------|
||--------------|-------------|-----------------------------|
||--9-----------|-9-----------|----------------------7------|
||o-7-----------|-7-----------|-7-7-7-9-9-9-10-10-10---10-9-|
||--------------|-------------|-----------------------------|
|
|                               |-3-| |-3-|  |--3--| |-3--|
|   E H    Q.     E H    Q.     E E E E E E  E  E  E E  E E
||--------------|-------------|-----------------------------|
||o-------------|-------------|-----------------------------|
||--------------|-------------|-----------------------------|
||--9-----------|-9-----------|----------------------7------|
||o-7-----------|-7-----------|-7-7-7-9-9-9-10-10-10---10-9-|
||--------------|-------------|-----------------------------|


  |-3-| |-3-|  |--3--| |-3--|
  E E E E E E  E  E  E E  E E
|------------------------------||
|-----------------------------o||
|------------------------------||
|----------------------7-------||
|-7-7-7-9-9-9-10-10-10---10-9-o||
|------------------------------||
|
| |-3-| |-3-|  |--3--| |-3--|
| E E E E E E  E  E  E E  E E
|------------------------------||
|-----------------------------o||
|------------------------------||
|----------------------7-------||
|-7-7-7-9-9-9-10-10-10---10-9-o||
|------------------------------||


    Gtr I
    W                         +W
||--------------------------|-----------------------------------|
||o-------------------------|-----------------------------------|
||--------------------------|-----------------------------------|
||--5-----------------------|-(5)-------------------------------|
||o-3-----------------------|-(3)-------------------------------|
||--------------------------|-----------------------------------|
|
|   PM------------------------------------------------------------|
|   |-3-| |-3-| |-3-| |-3-|    |-3--| |-3-| |--3--|     |-3-------|
|   E E E E E E E E E E E E    E  E E E E E E   E E     E E E
||--------------------------|-----------------------------------|
||o-------------------------|-----------------------------------|
||--------------------------|-----------------------------------|
||--------------------------|-----------------------------------|
||o-3-3-3-3-3-3-3-3-3-3-3-3-|--3--3-3-3-3-3-3---3-3-----3-3-3---|
||--------------------------|-----------------------------------|
|
|                             Gtr V
|   W                          H            E..     E..       S
||--------------------------|---------------3-------------------|
||o-------------------------|-----------------------3-----------|
||--------------------------|---------------------------------5-|
||--------------------------|-----------------------------------|
||o-------------------------|-----------------------------------|
||--------------------------|-----------------------------------|


  +W                          +W
|---------------------------|----------------------------|
|---------------------------|----------------------------|
|---------------------------|----------------------------|
|-(5)-----------------------|-(5)------------------------|
|-(3)-----------------------|-(3)------------------------|
|---------------------------|----------------------------|
|
|-----------------------------------------------------|
|  |-3--| |-3-| |-3-| |-3-|    |-3--| |-3-| |-3-| |-3-|
|  E  E E E E E E E E E E E    E  E E E E E E E E E E E
|---------------------------|----------------------------|
|---------------------------|----------------------------|
|---------------------------|----------------------------|
|---------------------------|----------------------------|
|--3--3-3-3-3-3-3-3-3-3-3-3-|--3--3-3-3-3-3-3-3-3-3-3-3--|
|---------------------------|----------------------------|
|
| +W                          +W
|---------------------------|----------------------------|
|---------------------------|----------------------------|
|-(5)-----------------------|-(5)------------------------|
|---------------------------|----------------------------|
|---------------------------|----------------------------|
|---------------------------|----------------------------|


  W                         +W
|-------------------------|---------------------------|
|-------------------------|---------------------------|
|-------------------------|---------------------------|
|-2-----------------------|-(2)-----------------------|
|-0-----------------------|-(0)-----------------------|
|-------------------------|---------------------------|
|
| PM----------------------------------------------------|
| |-3-| |-3-| |-3-| |-3-|    |-3--| |-3-| |-3-| |-3-----|
| E E E E E E E E E E E E    E  E E E E E E E E E E E
|-------------------------|---------------------------|
|-------------------------|---------------------------|
|-------------------------|---------------------------|
|-------------------------|---------------------------|
|-0-0-0-0-0-0-0-0-0-0-0-0-|--0--0-0-0-0-0-0-0-0-0-0-0-|
|-------------------------|---------------------------|


  W                         +W
|-------------------------|-------------------------------||
|-------------------------|------------------------------o||
|-------------------------|-------------------------------||
|-2-----------------------|-(2)---------------------------||
|-0-----------------------|-(0)--------------------------o||
|-------------------------|-------------------------------||
|
|---------------------------------------------------|
| |-3-| |-3-| |-3-| |-3-|    |-3--| |-3-| |-3-| |-3-|
| E E E E E E E E E E E E    E  E E E E E E E E E E E
|-------------------------|-------------------------------||
|-------------------------|------------------------------o||
|-------------------------|-------------------------------||
|-------------------------|-------------------------------||
|-0-0-0-0-0-0-0-0-0-0-0-0-|--0--0-0-0-0-0-0-0-0-0-0-0----o||
|-------------------------|-------------------------------||


                                |-3-| |-3-|  |--3--| |-3--|
    E H    Q.     E H    Q.     E E E E E E  E  E  E E  E E
||--------------|-------------|-----------------------------|
||o-------------|-------------|-----------------------------|
||--------------|-------------|-----------------------------|
||--9-----------|-9-----------|----------------------7------|
||o-7-----------|-7-----------|-7-7-7-9-9-9-10-10-10---10-9-|
||--------------|-------------|-----------------------------|
|
|                               |-3-| |-3-|  |--3--| |-3--|
|   E H    Q.     E H    Q.     E E E E E E  E  E  E E  E E
||--------------|-------------|-----------------------------|
||o-------------|-------------|-----------------------------|
||--------------|-------------|-----------------------------|
||--9-----------|-9-----------|----------------------7------|
||o-7-----------|-7-----------|-7-7-7-9-9-9-10-10-10---10-9-|
||--------------|-------------|-----------------------------|


  |-3-| |-3-|  |--3--| |-3--|
  E E E E E E  E  E  E E  E E
|------------------------------||
|-----------------------------o||
|------------------------------||
|----------------------7-------||
|-7-7-7-9-9-9-10-10-10---10-9-o||
|------------------------------||
|
| |-3-| |-3-|  |--3--| |-3--|
| E E E E E E  E  E  E E  E E
|------------------------------||
|-----------------------------o||
|------------------------------||
|----------------------7-------||
|-7-7-7-9-9-9-10-10-10---10-9-o||
|------------------------------||


    W                         +W
||--------------------------|-----------------------------------|
||o-------------------------|-----------------------------------|
||--------------------------|-----------------------------------|
||--5-----------------------|-(5)-------------------------------|
||o-3-----------------------|-(3)-------------------------------|
||--------------------------|-----------------------------------|
|
|   PM------------------------------------------------------------|
|   |-3-| |-3-| |-3-| |-3-|    |-3--| |-3-| |--3--|     |-3-------|
|   E E E E E E E E E E E E    E  E E E E E E   E E     E E E
||--------------------------|-----------------------------------|
||o-------------------------|-----------------------------------|
||--------------------------|-----------------------------------|
||--------------------------|-----------------------------------|
||o-3-3-3-3-3-3-3-3-3-3-3-3-|--3--3-3-3-3-3-3---3-3-----3-3-3---|
||--------------------------|-----------------------------------|
|
|   Gtr V
|   W                          H            E..     E..       S
||--------------------------|---------------3-------------------|
||o-------------------------|-----------------------3-----------|
||--------------------------|---------------------------------5-|
||--------------------------|-----------------------------------|
||o-------------------------|-----------------------------------|
||--------------------------|-----------------------------------|


  +W                          +W
|---------------------------|----------------------------|
|---------------------------|----------------------------|
|---------------------------|----------------------------|
|-(5)-----------------------|-(5)------------------------|
|-(3)-----------------------|-(3)------------------------|
|---------------------------|----------------------------|
|
|-----------------------------------------------------|
|  |-3--| |-3-| |-3-| |-3-|    |-3--| |-3-| |-3-| |-3-|
|  E  E E E E E E E E E E E    E  E E E E E E E E E E E
|---------------------------|----------------------------|
|---------------------------|----------------------------|
|---------------------------|----------------------------|
|---------------------------|----------------------------|
|--3--3-3-3-3-3-3-3-3-3-3-3-|--3--3-3-3-3-3-3-3-3-3-3-3--|
|---------------------------|----------------------------|
|
| +W                          +W
|---------------------------|----------------------------|
|---------------------------|----------------------------|
|-(5)-----------------------|-(5)------------------------|
|---------------------------|----------------------------|
|---------------------------|----------------------------|
|---------------------------|----------------------------|


  W                         +W
|-------------------------|---------------------------|
|-------------------------|---------------------------|
|-------------------------|---------------------------|
|-2-----------------------|-(2)-----------------------|
|-0-----------------------|-(0)-----------------------|
|-------------------------|---------------------------|
|
| PM----------------------------------------------------|
| |-3-| |-3-| |-3-| |-3-|    |-3--| |-3-| |-3-| |-3-----|
| E E E E E E E E E E E E    E  E E E E E E E E E E E
|-------------------------|---------------------------|
|-------------------------|---------------------------|
|-------------------------|---------------------------|
|-------------------------|---------------------------|
|-0-0-0-0-0-0-0-0-0-0-0-0-|--0--0-0-0-0-0-0-0-0-0-0-0-|
|-------------------------|---------------------------|


  W                         +W
|-------------------------|-------------------------------||
|-------------------------|------------------------------o||
|-------------------------|-------------------------------||
|-2-----------------------|-(2)---------------------------||
|-0-----------------------|-(0)--------------------------o||
|-------------------------|-------------------------------||
|
|---------------------------------------------------|
| |-3-| |-3-| |-3-| |-3-|    |-3--| |-3-| |-3-| |-3-|
| E E E E E E E E E E E E    E  E E E E E E E E E E E
|-------------------------|-------------------------------||
|-------------------------|------------------------------o||
|-------------------------|-------------------------------||
|-------------------------|-------------------------------||
|-0-0-0-0-0-0-0-0-0-0-0-0-|--0--0-0-0-0-0-0-0-0-0-0-0----o||
|-------------------------|-------------------------------||


    W                         +W
||--------------------------|---------------------------|
||o-------------------------|---------------------------|
||--------------------------|---------------------------|
||--------------------------|---------------------------|
||o-4-----------------------|-(4)-----------------------|
||--2-----------------------|-(2)-----------------------|
|
|   PM----------------------------------------------------|
|   |-3-| |-3-| |-3-| |-3-|    |-3--| |-3-| |-3-| |-3-----|
|   E E E E E E E E E E E E    E  E E E E E E E E E E E
||--------------------------|---------------------------|
||o-------------------------|---------------------------|
||--------------------------|---------------------------|
||--------------------------|---------------------------|
||o-------------------------|---------------------------|
||--2-2-2-2-2-2-2-2-2-2-2-2-|--2--2-2-2-2-2-2-2-2-2-2-2-|


  W                         +W
|-------------------------|------------------------------|
|-------------------------|------------------------------|
|-------------------------|------------------------------|
|-2-----------------------|-(2)--------------------------|
|-0-----------------------|-(0)--------------------------|
|-------------------------|------------------------------|
|
|---------------------------------------------------|
| |-3-| |-3-| |-3-| |-3-|    |-3--| |-3-| |-3-| |-3-|
| E E E E E E E E E E E E    E  E E E E E E E E E E E
|-------------------------|------------------------------|
|-------------------------|------------------------------|
|-------------------------|------------------------------|
|-------------------------|------------------------------|
|-0-0-0-0-0-0-0-0-0-0-0-0-|--0--0-0-0-0-0-0-0-0-0-0-0----|
|-------------------------|------------------------------|


  W                         +W
|-------------------------|---------------------------|
|-------------------------|---------------------------|
|-------------------------|---------------------------|
|-------------------------|---------------------------|
|-2-----------------------|-(2)-----------------------|
|-0-----------------------|-(0)-----------------------|
|
| PM----------------------------------------------------|
| |-3-| |-3-| |-3-| |-3-|    |-3--| |-3-| |-3-| |-3-----|
| E E E E E E E E E E E E    E  E E E E E E E E E E E
|-------------------------|---------------------------|
|-------------------------|---------------------------|
|-------------------------|---------------------------|
|-------------------------|---------------------------|
|-------------------------|---------------------------|
|-0-0-0-0-0-0-0-0-0-0-0-0-|--0--0-0-0-0-0-0-0-0-0-0-0-|


  W                         W
|-------------------------|-----------------------------||
|-------------------------|----------------------------o||
|-------------------------|-----------------------------||
|-------------------------|-----------------------------||
|-3-----------------------|-5--------------------------o||
|-1-----------------------|-3---------------------------||
|
|-------------------------------------------------|
| |-3-| |-3-| |-3-| |-3-|   |-3-| |-3-| |-3-| |-3-|
| E E E E E E E E E E E E   E E E E E E E E E E E E
|-------------------------|-----------------------------||
|-------------------------|----------------------------o||
|-------------------------|-----------------------------||
|-------------------------|-----------------------------||
|-------------------------|----------------------------o||
|-1-1-1-1-1-1-1-1-1-1-1-1-|-3-3-3-3-3-3-3-3-3-3-3-3-----||


     |-3-| |-3-|  |-3-| |-3-|    |-3-| |-3-| |-3-| |-3--|
     E E E E E E  E E E E E E    E E E E E E E E E E  E E
||----------------------------|---------------------------|
||o---------------------------|---------------------------|
||----------------------------|---------------------------|
||----------------------------|--------------7-7-7-7------|
||o-10-7-7-7-7-7-10-7-7-7-7-7-|-10-7-7-7-7-7---------10-9-|
||----------------------------|---------------------------|
|
|    |-3-| |-3-|  |-3-| |-3-|    |-3-| |-3-| |-3-| |-3--|
|    E E E E E E  E E E E E E    E E E E E E E E E E  E E
||----------------------------|---------------------------|
||o---------------------------|---------------------------|
||----------------------------|---------------------------|
||----------------------------|--------------7-7-7-7------|
||o-10-7-7-7-7-7-10-7-7-7-7-7-|-10-7-7-7-7-7---------10-9-|
||----------------------------|---------------------------|


   |-3-| |-3-|  |-3-| |-3-|
   E E E E E E  E E E E E E   H           H               3x
|---------------------------|-----------------------------||
|---------------------------|----------------------------o||
|---------------------------|-----------------------------||
|---------------------------|-5-----------8---------------||
|-10-7-7-7-7-7-10-7-7-7-7-7-|-3-----------6--------------o||
|---------------------------|-----------------------------||
|
|  |-3-| |-3-|  |-3-| |-3-|   |-3-| |-3-| |-3-| |-3-|
|  E E E E E E  E E E E E E   E E E E E E E E E E E E     3x
|---------------------------|-----------------------------||
|---------------------------|----------------------------o||
|---------------------------|-----------------------------||
|---------------------------|-----------------------------||
|-10-7-7-7-7-7-10-7-7-7-7-7-|-3-3-3-3-3-3-6-6-6-6-6-6----o||
|---------------------------|-----------------------------||


   |-3-| |-3-|  |-3-| |-3-|    |-3-| |-3-| |-3-| |-3--|
   E E E E E E  E E E E E E    E E E E E E E E E E  E E
|---------------------------|---------------------------|
|---------------------------|---------------------------|
|---------------------------|---------------------------|
|---------------------------|--------------7-7-7-7------|
|-10-7-7-7-7-7-10-7-7-7-7-7-|-10-7-7-7-7-7---------10-9-|
|---------------------------|---------------------------|
|
|  |-3-| |-3-|  |-3-| |-3-|    |-3-| |-3-| |-3-| |-3--|
|  E E E E E E  E E E E E E    E E E E E E E E E E  E E
|---------------------------|---------------------------|
|---------------------------|---------------------------|
|---------------------------|---------------------------|
|---------------------------|--------------7-7-7-7------|
|-10-7-7-7-7-7-10-7-7-7-7-7-|-10-7-7-7-7-7---------10-9-|
|---------------------------|---------------------------|


                          Interlude
                           Moderate Rock Q=112
   |-3-| |-3-|  |-3-|
   E E E E E E  E E E Q    E S S E. E. E. E.
|------------------------|---------------------|
|------------------------|---------------------|
|------------------------|-5-4h5p4-----6-------|
|------------------------|----------7-----7----|
|-10-7-7-7-7-7-10-7-7-7--|---------------------|
|------------------------|---------------------|
|
|  |-3-| |-3-|  |-3-|
|  E E E E E E  E E E Q    E S S E. E. E. E.
|------------------------|---------------------|
|------------------------|---------------------|
|------------------------|---------------------|
|------------------------|-7-6h7p6-----8-------|
|-10-7-7-7-7-7-10-7-7-7--|----------9-----9----|
|------------------------|---------------------|


  >
  W          +W           +W           +W
|----------|------------|------------|--------|
|----------|------------|------------|--------|
|-6--------|-(6)--------|-(6)--------|-(6)----|
|-6--------|-(6)--------|-(6)--------|-(6)----|
|-4--------|-(4)--------|-(4)--------|-(4)----|
|----------|------------|------------|--------|
|
| >
| W          +W           +W           +W
|----------|------------|------------|--------|
|----------|------------|------------|--------|
|----------|------------|------------|--------|
|----------|------------|------------|--------|
|-4--------|-(4)--------|-(4)--------|-(4)----|
|----------|------------|------------|--------|


 Verse 8
  Slower Q=64
                 Gtr VI
  Wx4             W
|------------||-------------------|
|------------||o-^6---------------|
|------------||--^6---------------|
|------------||--^7---------------|
|------------||o------------------|
|------------||-------------------|
|
|                Gtr IV
|                 <          <
| Wx4             H    +E. S E. S
|------------||-------------------|
|------------||o------------------|
|------------||---5----(5)---7----|
|------------||-------------------|
|------------||o------------------|
|------------||-------------------|


  W                         W                  W
|------------------------|------------------|--------|
|------------------------|-^3---------------|--------|
|------------------------|-^3---------------|--------|
|------------------------|-^4---------------|--------|
|------------------------|------------------|--------|
|------------------------|------------------|--------|
|
| <     <     <     <       <   >
| E. S  E. S  E. S  E. S    E. +H.      +S    +W
|------------------------|------------------|--------|
|------------------------|------------------|--------|
|-9----10----12----13----|--9--(9)------(9)-|-(9)----|
|------------------------|------------------|--------|
|------------------------|------------------|--------|
|------------------------|------------------|--------|


   W                 W                         W                  W
|------------------|------------------------|------------------|---------||
|-^6---------------|------------------------|-^4---------------|--------o||
|-^6---------------|------------------------|-^4---------------|---------||
|-^7---------------|------------------------|-^5---------------|---------||
|------------------|------------------------|------------------|--------o||
|------------------|------------------------|------------------|---------||
|
|  <          <      <     <     <     <       <   >
|  H    +E. S E. S   E. S  E. S  E. S  E. S    E. +H.      +S    +W
|------------------|------------------------|------------------|---------||
|------------------|------------------------|------------------|--------o||
|--5----(5)---7----|-9----10----12----13----|--8--(8)------(8)-|-(8)-----||
|------------------|------------------------|------------------|---------||
|------------------|------------------------|------------------|--------o||
|------------------|------------------------|------------------|---------||


   W                 W                         W                  W
|------------------|------------------------|------------------|--------|
|-^6---------------|------------------------|-^3---------------|--------|
|-^6---------------|------------------------|-^3---------------|--------|
|-^7---------------|------------------------|-^4---------------|--------|
|------------------|------------------------|------------------|--------|
|------------------|------------------------|------------------|--------|
|
|  <          <      <     <     <     <       <   >
|  H    +E. S E. S   E. S  E. S  E. S  E. S    E. +H.      +S    +W
|------------------|------------------------|------------------|--------|
|------------------|------------------------|------------------|--------|
|--5----(5)---7----|-9----10----12----13----|--9--(9)------(9)-|-(9)----|
|------------------|------------------------|------------------|--------|
|------------------|------------------------|------------------|--------|
|------------------|------------------------|------------------|--------|


     W                 W
||-------------------|------------------------|
||o-^6---------------|------------------------|
||--^6---------------|------------------------|
||--^7---------------|------------------------|
||o------------------|------------------------|
||-------------------|------------------------|
|
|    <          <      <     <     <     <
|    H    +E. S E. S   E. S  E. S  E. S  E. S
||-------------------|------------------------|
||o------------------|------------------------|
||---5----(5)---7----|-9----10----12----13----|
||-------------------|------------------------|
||o------------------|------------------------|
||-------------------|------------------------|


   W                       W
|----------------------|----------|
|-^4-------------------|----------|
|-^4-------------------|----------|
|-^5-------------------|----------|
|----------------------|----------|
|----------------------|----------|
|
|  <            >
|  Q    +Q     +H         +W
|----------------------|----------|
|----------------------|----------|
|-<7>--(<7>)--(<7>)----|-(<7>)----|
|----------------------|----------|
|----------------------|----------|
|----------------------|----------|


   W                 W
|------------------|------------------------|
|-^6---------------|------------------------|
|-^6---------------|------------------------|
|-^7---------------|------------------------|
|------------------|------------------------|
|------------------|------------------------|
|
|  <          <      <     <     <     <
|  H    +E. S E. S   E. S  E. S  E. S  E. S
|------------------|------------------------|
|------------------|------------------------|
|--5----(5)---7----|-9----10----12----13----|
|------------------|------------------------|
|------------------|------------------------|
|------------------|------------------------|


   W                       W
|----------------------|-----------||
|-^3-------------------|----------o||
|-^3-------------------|-----------||
|-^4-------------------|-----------||
|----------------------|----------o||
|----------------------|-----------||
|
|  <            >
|  Q    +Q     +H         +W
|----------------------|-----------||
|----------------------|----------o||
|-<3>--(<3>)--(<3>)----|-(<3>)-----||
|----------------------|-----------||
|----------------------|----------o||
|----------------------|-----------||


 Verse 9 and 10
  Faster Q=98
                 Gtr I
  Wx4            W                                8x
|------------||-----------------------------------||
|------------||o---------------------------------o||
|------------||-----------------------------------||
|------------||-----------------------------------||
|------------||o---------------------------------o||
|------------||-----------------------------------||
|
|                Gtr II
|                PM---------------------------------
| Wx4            S S S S S S S S S S S S S S S S  8x
|------------||-----------------------------------||
|------------||o---------------------------------o||
|------------||-----------------------------------||
|------------||-----------------------------------||
|------------||o-5-5-5-5-5-5-5-5-5-5-5-5-5-5-5-5-o||
|------------||-----------------------------------||


      PM----------------------------|
      S S S S S S S S S S S S S S S S  15x
|-||------------------------------------||
|-||o----------------------------------o||
|-||------------------------------------||
|-||------------------------------------||
|-||o-5-5-5-5-5-5-5-5-5-5-5-5-5-5-5-5--o||
|-||------------------------------------||
|
|-----------------------------------|
|     S S S S S S S S S S S S S S S S  15x
|-||------------------------------------||
|-||o----------------------------------o||
|-||------------------------------------||
|-||------------------------------------||
|-||o-5-5-5-5-5-5-5-5-5-5-5-5-5-5-5-5--o||
|-||------------------------------------||


                          Faster Q=142
  W          +W           +W           +W
|----------|------------|------------|--------|
|----------|------------|------------|--------|
|----------|------------|------------|--------|
|-2--------|-(2)--------|-(2)--------|-(2)----|
|-0--------|-(0)--------|-(0)--------|-(0)----|
|----------|------------|------------|--------|
|
| W          +W           +W           +W
|----------|------------|------------|--------|
|----------|------------|------------|--------|
|----------|------------|------------|--------|
|-2--------|-(2)--------|-(2)--------|-(2)----|
|-0--------|-(0)--------|-(0)--------|-(0)----|
|----------|------------|------------|--------|


    PM--------------------|
    |-3-| |-3-| |-3-| |-3-|
    E E E E E E E E E E E E  6x
||---------------------------||-|
||o-------------------------o||-|
||---------------------------||-|
||---------------------------||-|
||o-0-0-0-0-0-0-0-0-0-0-0-0-o||-|
||---------------------------||-|
|
|   PM--------------------|
|   |-3-| |-3-| |-3-| |-3-|
|   E E E E E E E E E E E E  6x
||---------------------------||-|
||o-------------------------o||-|
||---------------------------||-|
||---------------------------||-|
||o-0-0-0-0-0-0-0-0-0-0-0-0-o||-|
||---------------------------||-|


                                            |-3-| |-3-|
    W                         +H            E E E E E E
||--------------------------|----------------------------|
||o-------------------------|----------------------------|
||--------------------------|----------------------------|
||--2-----------------------|-(2)------------------------|
||o-0-----------------------|-(0)-----------3-3-3-3p2----|
||--------------------------|-------------------------5--|
|
|   |-3-| |-3-| |-3-| |-3-|    |-3--| |-3-| |-3-| |-3-|
|   E E E E E E E E E E E E    E  E E E E E E E E E E E
||--------------------------|----------------------------|
||o-------------------------|----------------------------|
||--------------------------|----------------------------|
||--------------------------|----------------------------|
||o-0-0-0-0-0-0-0-0-0-0-0-0-|--0--0-0-0-0-0-3-3-3-3p2----|
||--------------------------|-------------------------5--|


  W                         H           Q     Q
|-------------------------|--------------------------||
|-------------------------|-------------------------o||
|-------------------------|--------------------------||
|-------------------------|-------------2------------||
|-3-----------------------|-5-----------0-----5-----o||
|-1-----------------------|-3-----------------3------||
|
| |-3-| |-3-| |-3-| |-3-|   |-3-| |-3-| |-3-| |-3-|
| E E E E E E E E E E E E   E E E E E E E E E E E E
|-------------------------|--------------------------||
|-------------------------|-------------------------o||
|-------------------------|--------------------------||
|-------------------------|--------------------------||
|-------------------------|-------------0-0-0-------o||
|-1-1-1-1-1-1-1-1-1-1-1-1-|-3-3-3-3-3-3-------3-3-3--||


 Guitar Solo 1 (Adrian)
  ~~                                                                             ~
  H.                                  Q               E      S     S  Q          H
|--------------------------------------------------|-----------------------------------------|
|--------------------------------------------------|-----------------------------------------|
|-------------------------------------7b9==========|==7r-----7p====5-------------5-----------|
|-7------------------------------------------------|------------------7----------------------|
|--------------------------------------------------|-----------------------------------------|
|--------------------------------------------------|-----------------------------------------|
|
|     PM------------------------------------------------------------------------------------|
| |---3---|   |---3---|   |---3---|   |----3----|     |----3----|     |---3---|  |-3-| |-3--|
| E   E   E   E   E   E   E   E   E   E     E   E     E   E     E     E   E   E  E E E E E E
|--------------------------------------------------|-----------------------------------------|
|--------------------------------------------------|-----------------------------------------|
|--------------------------------------------------|-----------------------------------------|
|-2--(2)-(2)-(2)-(2)-(2)-(2)-(2)-(2)-(2)---(2)-(2)-|-(2)-(2)---(2)---(2)-(2)-(2)-------------|
|-0---0---0---0---0---0---0---0---0---0-----0---0--|--0---0-----0-----0---0---0--3-3-3-3p2---|
|--------------------------------------------------|---------------------------------------5-|


                     ~~~~~~~                          ~~
  |--3---|   |---3---|
  E  E   E   E   E   E  +Q.                 S     S   H.                               E     E
|---------------------------------------------------|-------------------------------------------------|
|---------------------------------------------------|-------------------------------------------------|
|---------------------------------------------------|-------------------------------------------------|
|-7p=5----------------------------------------------|-------------------------------------------------|
|--------7---6p==5---3--(3)-----------------3p====0-|-------------------------------------------------|
|---------------------------------------------------|-3--------------------------------0--------------|
|
|    PM---------------------------------------|           PM-------------|      PM-|      PM--|
| |--3---|   |---3---|   |---3---|   |----3----|      |---3---|   |---3---|  |--3---|  |---3--|
| E  E   E   E   E   E   E   E   E   E   E     E      E   E   E   E   E   E  E  E   E  E  E     E
|---------------------------------------------------|-------------------------------------------------|
|---------------------------------------------------|-------------------------------------------------|
|---------------------------------------------------|-------------------------------------------------|
|---------------------------------------------------|------------------------2-(2)-(2)----------------|
|-3-(3)-(3)-(3)-(3)-(3)-(3)-(3)-(3)-(3)-(3)---(3)---|-5--(5)-(5)-(5)-(5)-(5)-0--0---0--5-(5)---(5)----|
|-1--1---1---1---1---1---1---1---1---1---1-----1----|-3---3---3---3---3---3------------3--3-----3-----|


  |--3---|   |---3---|   |---3---|   |---3---|     |---3---|   |---3---|
  E  E   E   E   E   E   E   E   E   E   E   E     E   E   E   E   E   E   H
|------------------------8---8---8---8---8---8--|-10--10--10--10--10--10--10\-----------|
|-8-10--10--10--10--10--10--10--10--10--10--10--|-10--10--10--10--10--10--10\-----------|
|-9--9---9---9---9---9--------------------------|---------------------------------------|
|-----------------------------------------------|---------------------------------------|
|-----------------------------------------------|---------------------------------------|
|-----------------------------------------------|---------------------------------------|
|
|    PM---------------------------------------------------------------------------------|
| |--3---|   |---3---|   |---3---|   |---3---|     |---3---|   |---3---|   |-3--| |-3---|
| E  E   E   E   E   E   E   E   E   E   E   E     E   E   E   E   E   E   E  E E E E E
|-----------------------------------------------|---------------------------------------|
|-----------------------------------------------|---------------------------------------|
|-----------------------------------------------|---------------------------------------|
|-2-(2)-(2)-(2)-(2)-(2)-(2)-(2)-(2)-(2)-(2)-(2)-|-(2)-(2)-(2)-(2)-(2)-(2)---------------|
|-0--0---0---0---0---0---0---0---0---0---0---0--|--0---0---0---0---0---0---3--3-3-3p2---|
|-----------------------------------------------|-------------------------------------5-|


          ~~~~~~~~~~~~~~~~~~~~~~~~~~~~~~                          ~~~~~~~
                                             |---3---|     |--3---|
  S S     H                         +E       E   E   E     E  E   E  +H.
|--------------------------------------------------------|-------------------------------------------|
|--------------------------------------------------------|-------------------------------------------|
|---------9-------------------------(9)------5---7---7b9r|=7--5---7--(7)-----------------------------|
|---7----------------------------------------------------|-------------------------------------------|
|-8------------------------------------------------------|-------------------------------------------|
|--------------------------------------------------------|-------------------------------------------|
|
|      PM-------------------------------------------|         PM-------------|      PM-|      PM--|
| |----3-----|   |---3---|   |-----3-----|   |---3---|     |--3---|   |---3---|  |--3---|  |--3---|
| E    E     E   E   E   E   E   E       E   E   E   E     E  E   E   E   E   E  E  E   E  E  E   E
|--------------------------------------------------------|-------------------------------------------|
|--------------------------------------------------------|-------------------------------------------|
|--------------------------------------------------------|-------------------------------------------|
|--------------------------------------------------------|-----------------------2-(2)-(2)-----------|
|-3---(3)---(3)-(3)-(3)-(3)-(3)-(3)-----(3)-(3)-(3)-(3)--|-5-(5)-(5)-(5)-(5)-(5)-0--0---0--5-(5)-(5)-|
|-1----1-----1---1---1---1---1---1-------1---1---1---1---|-3--3---3---3---3---3------------3--3---3--|


                                                                        |---3---|  |-3-|  |-3-|
   Q             H.                                       +Q            E   E   E  E E E  E E E
|------------------------------------------------------|----------------------------------------|
|--8-------------8-------------------------------------|--(8)-----------8-----------------------|
|-10b12r========10b12==================================|=(10)r--------------9---8p=7S5------5---|
|------------------------------------------------------|--------------------------------------7-|
|------------------------------------------------------|-------------------------------7\-6-----|
|------------------------------------------------------|----------------------------------------|
|
|        PM------------------------------------------------------------------------------------|
|  |----3----|   |----3-----|   |---3---|   |---3---|      |---3----|   |---3---|  |-3-|  
Добавлено: 11.03.2012
Другие материалы по этой песне:

Страница создана 11.03.2012
http://primanota.ru/iron-maiden/rime-of-the-anciente-mariner-chords.htm
Привет, Гость.
Предлагаем пройти революционный курс по гитаре.
Подарок от PrimaNota.Ru, забирай!