PrimaNota.ru - самый крупный в мире бесплатный архив песенных текстов, аккордов, табулатур и нот


Iron Maiden - Reach Out - текст песни, таба, бас-таба, видео

Регистрация Запомнить меня
Войти через:  Facebook Google Twitter Vk Yandex Mail.ru

Iron Maiden - Reach Out - текст песни, таба, бас-таба, видео

Печатать
Просмотров: 312
IRON MAIDEN
Reach Out                                                                      

A great song with Adrian Smith on vocals!

                                                                   

E||--12---------12---------12-----|--12---------12---------12-----|
B||------12---------12------------|------12---------12------------|
G||----------9----------9------9--|----------9----------9------9--|
D||-------------------------------|-------------------------------|
A||-------------------------------|-------------------------------|
E||-------------------------------|-------------------------------|


                                                        
--9---------9---------9-----|--7--------------7--------|
-----12--------12-----------|-----7--------7-----7-----|
---------9---------9-----9--|-----------9-----------9--|
----------------------------|--------9-----------------|
----------------------------|--------------------------|
----------------------------|--------------------------|


                                                                
--12---------12---------12-----|--12---------12---------12-----|
------12---------12------------|------12---------12------------|
----------9----------9------9--|----------9----------9------9--|
-------------------------------|-------------------------------|
-------------------------------|-------------------------------|
-------------------------------|-------------------------------|


                                                        
--9---------9---------9-----|--7--------------7--------|
-----12--------12-----------|-----7--------7-----7-----|
---------9---------9-----9--|-----------9-----------9--|
----------------------------|--------9-----------------|
----------------------------|--------------------------|
----------------------------|--------------------------|


                                                                
--12---------12---------12-----|--12---------12---------12-----|
------12---------12------------|------12---------12------------|
----------9----------9------9--|----------9----------9------9--|
-------------------------------|-------------------------------|
-------------------------------|-------------------------------|
-------------------------------|-------------------------------|


                                                                              
--9---------9---------9-----|--7--------------7--------|---------------------|
-----12--------12-----------|-----7--------7-----7-----|---------------------|
---------9---------9-----9--|-----------9-----------9--|--7------7------2----|
----------------------------|--------9-----------------|--7------7------2----|
----------------------------|--------------------------|--5------5------0----|
----------------------------|--------------------------|---------------------|


                                                                        
---------------------|------------------------|------------------------|
---------------------|-----------10------9----|-----------10------9----|
---------------------|-----------9-------9----|-----------9-------9----|
---------------------|------------------------|------------------------|
------0~---0~---0~---|------------------------|--0--0--0---------------|
---------------------|--0--0--0---------------|------------------------|


                                                                       
--------------------------|------------------|------------------------|
-----------------------2--|------------------|-----------10------9----|
--6--6-----2--2-----4--4--|------------------|-----------9-------9----|
--6--6-----2--2-----4--4--|------------------|------------------------|
--4--4--x--0--0--x--2--2--|------------------|------------------------|
--------------------------|------------------|--0--0--0---------------|


                                                                       
------------------------|--------------------------|------------------|
-----------10------9----|-----------------------2--|------------------|
-----------9-------9----|--6--6-----2--2-----4--4--|------------------|
------------------------|--6--6-----2--2-----4--4--|------------------|
--0--0--0---------------|--4--4--x--0--0--x--2--2--|------------------|
------------------------|--------------------------|------------------|


                                                        
---------------------------|---------------------------|
-----------10--------9-----|-----------10--------9-----|
--9--9--9--9---9--9--9--9--|-----------9---------9-----|
---------------------------|--7--7--7------7--7-----7--|
---------------------------|---------------------------|
---------------------------|---------------------------|


                                                             
---------------------------------|--------------------------|
--------------10----------9------|-----------10--------9----|
--------------9-----------9------|-----------9---------9----|
--11--11--11------11--11-----11--|--9--9--9------9--9-------|
---------------------------------|--------------------------|
---------------------------------|--------------------------|


                                                        
---------------------------|---------------------------|
-----------10--------9-----|-----------10--------9-----|
--9--9--9--9---9--9--9--9--|-----------9---------9-----|
---------------------------|--7--7--7------7--7-----7--|
---------------------------|---------------------------|
---------------------------|---------------------------|


                                                            
---------------------------------|-------------------------|
--------------10----------9------|--5----5p-4-----5p-4-----|
--------------9-----------9------|--4----------4--------4--|
--11--11--11------11--11-----11--|-------------------------|
---------------------------------|-------------------------|
---------------------------------|-------------------------|


                                                                        
-----------------------|-----------------------|-----------------------|
---------7----5p-4-----|---------7----5p-4-----|---------7----5p-4-----|
----6---------------4--|----6---------------4--|----6---------------4--|
-----------------------|-----------------------|-----------------------|
-----------------------|-----------------------|-----------------------|
-----------------------|-----------------------|-----------------------|


                                                                     
----------------------|----------------------|----------------------|
---------7----5p-4----|------4h-5------4-----|------4h-5------4-----|
----6-----------------|-------------------4--|-------------------4--|
----------------------|----------------------|----------------------|
----------------------|----------------------|----------------------|
----------------------|----------------------|----------------------|


                                                                     
----------------------|----------------------|----------------------|
------4h-5----4-------|------4h-5----4-------|------4h-5----4-------|
-------------------4--|-------------------4--|-------------------4--|
----------------------|----------------------|----------------------|
----------------------|----------------------|----------------------|
----------------------|----------------------|----------------------|


                                                                 
--------------------|------------------------|------------------|
------4h-5----------|------------------------|------------------|
--------------------|--7--7--x--7----6--2----|------------------|
--------------------|--7--7--x--7----6--2----|------------------|
--------------------|--5--5--x--5----4--0----|------------------|
--------------------|------------------------|------------------|


                                                        
---------------------------|---------------------------|
-----------10--------9-----|-----------10--------9-----|
--9--9--9--9---9--9--9--9--|-----------9---------9-----|
---------------------------|--7--7--7------7--7-----7--|
---------------------------|---------------------------|
---------------------------|---------------------------|


                                                             
---------------------------------|--------------------------|
--------------10----------9------|-----------10--------9----|
--------------9-----------9------|-----------9---------9----|
--11--11--11------11--11-----11--|--9--9--9------9--9-------|
---------------------------------|--------------------------|
---------------------------------|--------------------------|


                                                        
---------------------------|---------------------------|
-----------10--------9-----|-----------10--------9-----|
--9--9--9--9---9--9--9--9--|-----------9---------9-----|
---------------------------|--7--7--7------7--7-----7--|
---------------------------|---------------------------|
---------------------------|---------------------------|


                                                            
---------------------------------|-------------------------|
--------------10----------9------|--5----5p-4-----5p-4-----|
--------------9-----------9------|--4----------4--------4--|
--11--11--11------11--11-----11--|-------------------------|
---------------------------------|-------------------------|
---------------------------------|-------------------------|


                                                                        
-----------------------|-----------------------|-----------------------|
---------7----5p-4-----|---------7----5p-4-----|---------7----5p-4-----|
----6---------------4--|----6---------------4--|----6---------------4--|
-----------------------|-----------------------|-----------------------|
-----------------------|-----------------------|-----------------------|
-----------------------|-----------------------|-----------------------|


                                                                     
----------------------|----------------------|----------------------|
---------7----5p-4----|------4h-5------4-----|------4h-5------4-----|
----6-----------------|-------------------4--|-------------------4--|
----------------------|----------------------|----------------------|
----------------------|----------------------|----------------------|
----------------------|----------------------|----------------------|


                                                                     
----------------------|----------------------|----------------------|
------4h-5----4-------|------4h-5----4-------|------4h-5----4-------|
-------------------4--|-------------------4--|-------------------4--|
----------------------|----------------------|----------------------|
----------------------|----------------------|----------------------|
----------------------|----------------------|----------------------|


                                                                   
--------------------|----------------------|----------------------|
------4h-5----------|------4h-5------4-----|------4h-5------4-----|
--------------------|-------------------4--|-------------------4--|
--------------------|----------------------|----------------------|
--------------------|----------------------|----------------------|
--------------------|----------------------|----------------------|


                                                                     
----------------------|----------------------|----------------------|
------4h-5----4-------|------4h-5----4-------|------4h-5----4-------|
-------------------4--|-------------------4--|-------------------4--|
----------------------|----------------------|----------------------|
----------------------|----------------------|----------------------|
----------------------|----------------------|----------------------|


                                                                 
--------------------|------------------------|------------------|
------4h-5----------|------------------------|------------------|
--------------------|--7--7--x--7----6--2----|------------------|
--------------------|--7--7--x--7----6--2----|------------------|
--------------------|--5--5--x--5----4--0----|------------------|
--------------------|------------------------|------------------|


                                                                         
-----------------------|------------------------|-----------------------|
--9p7---7-9------------|--9--10----------10--9--|--9p7---7-9------------|
------9----------------|------------------------|------9----------------|
-----------------------|------------------------|-----------------------|
-----------------------|------------------------|-----------------------|
-----------------------|------------------------|-----------------------|


                                                         
--------------------------------|-----------------------|
--9----7------------------------|--9p7---7-9------------|
------------9----8----6---------|------9----------------|
---------------------------9----|-----------------------|
--------------------------------|-----------------------|
--------------------------------|-----------------------|


                                                 
------------------------|-----------------------|
--9--10----------10--9--|--9p7---7-9------------|
------------------------|------9----------------|
------------------------|-----------------------|
------------------------|-----------------------|
------------------------|-----------------------|


                                                          
--------------------------------|--19b---19b---19r-------|
--9----7------------------------|------------------------|
------------9----8----6---------|------------------------|
---------------------------9----|------------------------|
--------------------------------|------------------------|
--------------------------------|------------------------|


                                                                            
--17h-19p-17--16--17------16--17--|--16h-17p-16--14--16--16r---14h-16p-14--|
----------------------------------|----------------------------------------|
----------------------------------|----------------------------------------|
----------------------------------|----------------------------------------|
----------------------------------|----------------------------------------|
----------------------------------|----------------------------------------|


                                                                
--12h-14p-12--11--12------------|---------9-----12--11--9------|
--------------------------------|------9-----9-------------12b-|
--------------------------11----|--11b-------------------------|
--------------------------------|------------------------------|
--------------------------------|------------------------------|
--------------------------------|------------------------------|


                                                                   
----9---------------------------|---------------------11--12--14--|
-------10--12--10--9------------|-------------12--14--------------|
----------------------11--9--8--|--9--13--14----------------------|
--------------------------------|---------------------------------|
--------------------------------|---------------------------------|
--------------------------------|---------------------------------|


                                                                             
--19b---------------|---------------------------|---------------------------|
--------------------|-----------10--------9-----|-----------10--------9-----|
--------------------|--9--9--9--9---9--9--9--9--|-----------9---------9-----|
--------------------|---------------------------|--7--7--7------7--7-----7--|
--------------------|---------------------------|---------------------------|
--------------------|---------------------------|---------------------------|


                                                             
---------------------------------|--------------------------|
--------------10----------9------|-----------10--------9----|
--------------9-----------9------|-----------9---------9----|
--11--11--11------11--11-----11--|--9--9--9------9--9-------|
---------------------------------|--------------------------|
---------------------------------|--------------------------|


                                                        
---------------------------|---------------------------|
-----------10--------9-----|-----------10--------9-----|
--9--9--9--9---9--9--9--9--|-----------9---------9-----|
---------------------------|--7--7--7------7--7-----7--|
---------------------------|---------------------------|
---------------------------|---------------------------|


                                                            
---------------------------------|-------------------------|
--------------10----------9------|--5----5p-4-----5p-4-----|
--------------9-----------9------|--4----------4--------4--|
--11--11--11------11--11-----11--|-------------------------|
---------------------------------|-------------------------|
---------------------------------|-------------------------|


                                                                        
-----------------------|-----------------------|-----------------------|
---------7----5p-4-----|---------7----5p-4-----|---------7----5p-4-----|
----6---------------4--|----6---------------4--|----6---------------4--|
-----------------------|-----------------------|-----------------------|
-----------------------|-----------------------|-----------------------|
-----------------------|-----------------------|-----------------------|


                                                                     
----------------------|----------------------|----------------------|
---------7----5p-4----|------4h-5------4-----|------4h-5------4-----|
----6-----------------|-------------------4--|-------------------4--|
----------------------|----------------------|----------------------|
----------------------|----------------------|----------------------|
----------------------|----------------------|----------------------|


                                                                     
----------------------|----------------------|----------------------|
------4h-5----4-------|------4h-5----4-------|------4h-5----4-------|
-------------------4--|-------------------4--|-------------------4--|
----------------------|----------------------|----------------------|
----------------------|----------------------|----------------------|
----------------------|----------------------|----------------------|


                                                                   
--------------------|----------------------|----------------------|
------4h-5----------|------4h-5------4-----|------4h-5------4-----|
--------------------|-------------------4--|-------------------4--|
--------------------|----------------------|----------------------|
--------------------|----------------------|----------------------|
--------------------|----------------------|----------------------|


                                                                     
----------------------|----------------------|----------------------|
------4h-5----4-------|------4h-5----4-------|------4h-5----4-------|
-------------------4--|-------------------4--|-------------------4--|
----------------------|----------------------|----------------------|
----------------------|----------------------|----------------------|
----------------------|----------------------|----------------------|


                                                                         
--------------------|--------------------------|------------------------|
------4h-5----------|--------------------------|------------------------|
--------------------|--------------------------|------------------------|
--------------------|--2--2--2--1--1--1--------|------------------------|
--------------------|--------------------4--4--|--4--2--2--2--0----2----|
--------------------|--------------------------|------------------------|


                                                                     
----------------------|----------------------|----------------------|
------4h-5------4-----|------4h-5------4-----|------4h-5----4-------|
-------------------4--|-------------------4--|-------------------4--|
----------------------|----------------------|----------------------|
----------------------|----------------------|----------------------|
----------------------|----------------------|----------------------|


                                                                   
----------------------|----------------------|--------------------|
------4h-5----4-------|------4h-5----4-------|------4h-5----------|
-------------------4--|-------------------4--|--------------------|
----------------------|----------------------|--------------------|
----------------------|----------------------|--------------------|
----------------------|----------------------|--------------------|


                                                                     
------------------------|------------------|------------------------|
------------------------|------------------|-----------10------9----|
--7--7--x--7----6--2----|------------------|-----------9-------9----|
--7--7--x--7----6--2----|------------------|------------------------|
--5--5--x--5----4--0----|------------------|------------------------|
------------------------|------------------|--0--0--0---------------|


                                                                       
------------------------|--------------------------|------------------|
-----------10------9----|-----------------------2--|------------------|
-----------9-------9----|--6--6-----2--2-----4--4--|------------------|
------------------------|--6--6-----2--2-----4--4--|------------------|
--0--0--0---------------|--4--4--x--0--0--x--2--2--|------------------|
------------------------|--------------------------|------------------|


                                                                             
------------------------|------------------------|--------------------------|
-----------10------9----|-----------10------9----|-----------------------2--|
-----------9-------9----|-----------9-------9----|--6--6-----2--2-----4--4--|
------------------------|------------------------|--6--6-----2--2-----4--4--|
------------------------|--0--0--0---------------|--4--4--x--0--0--x--2--2--|
--0--0--0---------------|------------------------|--------------------------|


                                                               
------------------|------------------|-----------------------||
------------------|------------------|--9p7---7-9------------||
------------------|------------------|------9----------------||
------------------|------------------|-----------------------||
------------------|------------------|-----------------------||
------------------|------------------|-----------------------||


Tabbed by Ed_Hunter

Добавлено: 05.05.2012
Другие материалы по этой песне:

Страница создана 05.05.2012
http://primanota.ru/iron-maiden/reach-out-chords.htm
Привет, Гость.
Предлагаем пройти революционный курс по гитаре.
Подарок от PrimaNota.Ru, забирай!