PrimaNota.ru - самый крупный в мире бесплатный архив песенных текстов, аккордов, табулатур и нот


Iron Maiden - Penguins at night - таба, видео

Регистрация Запомнить меня
Войти через:  Facebook Google Twitter Vk Yandex Mail.ru

Iron Maiden - Penguins at night - таба, видео

Печатать
Просмотров: 180


IRON MAIDEN - PENGUINS AT NIGHT
Guitar tab
E A D G B E

Hey all, this is my 2nd tab, so be lenient. I'm pretty sure
this is correct, at least it sounds good to me.

Intro (play fast and palm muted)
e-------------------------------------------------|
B-------------------------------------------------|
G-------------------------------------------------|
D-------------------------------------------------|X8
A-------------------------------------------------|
E-3-0-0-3-0-0-3-0-0-0-0-5-5-5-5-3-2-2-------------|
  . . . . . . . . . . . . . . . . . .

Verse (timing is important)
e-----------------------------------------------|
B-----------------------------------------------|
G-----------------------9--14----10-12-14-12-9~-|
D---2--------3----------9--14-12----------------|
A---2--4-5~--3---9-10~--7--12-------------------|
E---0-2------5-7--------------------------------|

Chorus (pretty easy)
e----------------------------------------------|
B----------------------------10p0--------------|
G--------------------14-14--------9p0----------|
D---3-3h5p3-9-9h10p9-14-14------------7p0------|
A---3-------9--------12-12---------------------|
E---5-------7----------------------------------|

That's all I got. No solo, sorry, but IMO it's not that good anyway.

Добавлено: 23.09.2013
Другие материалы по этой песне:
  • Аккорды и текст

Страница создана 23.09.2013
http://primanota.ru/iron-maiden/penguins-at-night-chords.htm
Привет, Гость.
Предлагаем пройти революционный курс по гитаре.
Подарок от PrimaNota.Ru, забирай!