PrimaNota.ru - самый крупный в мире бесплатный архив песенных текстов, аккордов, табулатур и нот


Iron Maiden - No More Lies - аккорды и текст, таба, бас-таба, видео

Регистрация Запомнить меня
Войти через:  Facebook Google Twitter Vk Yandex Mail.ru

Iron Maiden - No More Lies - аккорды и текст, таба, бас-таба, видео

Печатать
Просмотров: 1320
Уроки эстрадного вокала в Санкт-Петербурге
Авторы: Steve Harris

No More Lies
Iron Maiden
-------------------------------------------------------------------------------
                             NO MORE LIES - Iron Maiden
-------------------------------------------------------------------------------
Tabbed by: Marcus Åström
E-mail: macke98@gmail.com

Tuning: EADGBe

| -----------------------------------------------------------------------------------------|
| -----------------------------------------------------------8-----------------------------|
| ----9--7--9----7--9--7--9--9----7--9--7--9--9----7--9--10-----10--9----7--9--7----5--5---|
| --7--------------------------------------------------------------------------------------|
| -----------------------------------------------------------------------------------------|
| -----------------------------------------------------------------------------------------|


| ---------------------------------------------------------------------------|
| ---------------------------------------------------------------------------|
| --4--5--4--5--5--4--5--4-----------------------7---------------------------|
| --------------------------7--7--5--7--5--7--5------------------------------|
| ---------------------------------------------------------------------------|
| ---------------------------------------------------------------------------|  2x


---------------------------------------------------------------------------|
---------------------------------------------------------------------------|
-----9--9--9--9--7--9-------9--9--9--9--10--9--7--9------------------------|
--7----------------------7-------------------------------------------------|
---------------------------------------------------------------------------|
---------------------------------------------------------------------------|  4x


---------------------------------------------------------------------------|
------12--13--------12--13--------12--13--15--13--12--13--12---------------|
--14------------14------------14------------------------------12-----------|
---------------------------------------------------------------------------|
---------------------------------------------------------------------------|
---------------------------------------------------------------------------|  4x


Am                        F
There's a darkening sky before me

Dm                      G
There's no time to prepare

Am                F
Salvage a lost horizon

Dm                  G
But no regrets from me


Am                       F
Maybe I'll be back some other day

Dm                           G
To live again, just who can say

Am                          F
In what shape or form that I might be

Dm                      G
Just another chance for me


Am                Dm
A hurried time, no disgrace

C                 G
Instead of racing to conclusion

Am               Dm
Wishing all my life away

    C               G
No-one can stop me now


Am                 Dm
Time is up, it couldn't last

      C                       G
But there's more things I'd like to do

      Am            Dm
I'm coming back to try again

    C                 G
Someday maybe I'll wait till then


          Am
No More Lies

          F
No More Lies

          G
No More Lies

          Dm
No More Lies    2x


Am                         F
They're all sitting at my table

Dm                         G
Talking tall and drinking wine

Am                     F
Their time is up just like me

Dm                          G
But They just don't know it yet


Am                  F
So just a word of warning

Dm                            G
When you're in your deepest dreams

Am                        F
There's nothing you can hide from

Dm                   G
I've got my eye on you


     Am                 Dm
The clock is fast. The hour is near

  C                 G
Eventful past is everclear

    Am               Dm
My life is set the time is here

   C                 G
I think I'm coming home


          Am
No More Lies

          F
No More Lies

          G
No More Lies

          Dm
No More Lies    2x

-Intro-


-Solo- (Am  Am  F  G / Am  Am  
Dm  G) 2x    (Am  Am  F  G) 8x


Am              Dm
A hurried time, no disgrace

    C             G
Instead of racing to conclusion

   Am             Dm
Wishing all your life away

    C               G
No-one can stop me now


Am               Dm
Time is up, it couldn't last

      C                     G
But there's more things I have to do

     Am              Dm
I'm coming back to try again

       C                  G
Don't tell me that this is the end

          Am
No More Lies


          F
No More Lies


          G
No More Lies


          Dm
No More Lies  x2


         Am   F
No More Lieeeees


         G    Dm
No More Lieeeees


Play the intro as an outro and end the song on an Am
Добавлено: 15.07.2014
Другие материалы по этой песне:

Страница создана 21.02.2012
http://primanota.ru/iron-maiden/no-more-lies-chords.htm
Привет, Гость.
Предлагаем пройти революционный курс по гитаре.
Подарок от PrimaNota.Ru, забирай!