PrimaNota.ru - самый крупный в мире бесплатный архив песенных текстов, аккордов, табулатур и нот


Iron Maiden - If Eternity Should Fail - таба, бас-таба, драм-таба, видео

Регистрация Запомнить меня
Войти через:  Facebook Google Twitter Vk Yandex Mail.ru

Iron Maiden - If Eternity Should Fail - таба, бас-таба, драм-таба, видео

Печатать
Просмотров: 265
Авторы музыки: Bruce Dickinson
Авторы текста: Bruce Dickinson
                            If Eternity Should Fail   
                          

                                  Iron Maiden

Instruments:
- G #1
- G #2
- G #3
- G #4
- Voice Melody
- keyboard #1
- keyboard #2



Guitar #1:

Adrian Smith

                                   Riff A                 
     S    H.            Q          Q.      Q.       Q     
E||----|----------------------|--------------------------|
B||----|----------------------|--/10--------------/10----|
G||----|----------------------|-----------10-------------|
D||----|----------------------|--------------------------|
A||----|---------------12\----|--------------------------|
D||----|---------------12\----|--------------------------|


  Q     E  E   H             Q.      Q.       Q       Q     E  E   H         
------------------------|--------------------------|------------------------|
--8---------------------|--/10--------------/10----|--8---------------------|
-------10--9~--L--------|-----------10-------------|-------10--9~--L--------|
------------------------|--------------------------|------------------------|
------------------------|--------------------------|------------------------|
------------------------|--------------------------|------------------------|


    Q.      Q.       Q       Q     E  E   H             Q.      Q.       Q     
--------------------------|------------------------|--------------------------|
--/10--------------/10----|--8---------------------|--/10--------------/10----|
-----------10-------------|-------10--9~--L--------|-----------10-------------|
--------------------------|------------------------|--------------------------|
--------------------------|------------------------|--------------------------|
--------------------------|------------------------|--------------------------|


                             Verso A                                
                             ^       v ^   PM PM PM PM PM PM PM PM  
  Q     E   E    H           E       S E.  S  S  E  S  S  E  S  S   
--------------------------|----------------------------------------|
--8----10--10~---L--------|--6-------6-6---------------------------|
--------------------------|--7-------7-7---------------------------|
--------------------------|--7-------7-7---0--0--0--0--0--0--0--0--|
--------------------------|----------------------------------------|
--------------------------|----------------------------------------|


  ^  v ^   PM PM PM PM PM PM PM PM    ^  v ^   PM PM PM PM PM PM PM PM  
  E  S E.  S  S  E  S  S  E  S  S     E  S E.  S  S  E  S  S  E  S  S   
-----------------------------------|-----------------------------------|
--5--5-5---------------------------|--6--6-6---------------------------|
--5--5-5---------------------------|--7--7-7---------------------------|
--5--5-5---0--0--0--0--0--0--0--0--|--7--7-7---0--0--0--0--0--0--0--0--|
-----------------------------------|-----------------------------------|
-----------------------------------|-----------------------------------|


  ^  v ^  PM PM PM ^  v ^  PM PM PM    ^  v ^   PM PM PM PM PM PM PM PM  
  E  S E  S  S  S  E  S E  S  S  S     E  S E.  S  S  E  S  S  E  S  S   
------------------------------------|-----------------------------------|
--6--6-6-----------5--5-5-----------|--6--6-6---------------------------|
--5--5-5-----------5--5-5-----------|--7--7-7---------------------------|
----------0--0--0----------0--0--0--|--7--7-7---0--0--0--0--0--0--0--0--|
------------------------------------|-----------------------------------|
------------------------------------|-----------------------------------|


  ^  v ^   PM PM PM PM PM PM PM PM    ^  v ^   PM PM PM PM PM PM PM PM  
  E  S E.  S  S  E  S  S  E  S  S     E  S E.  S  S  E  S  S  E  S  S   
-----------------------------------|-----------------------------------|
--5--5-5---------------------------|--6--6-6---------------------------|
--5--5-5---------------------------|--7--7-7---------------------------|
--5--5-5---0--0--0--0--0--0--0--0--|--7--7-7---0--0--0--0--0--0--0--0--|
-----------------------------------|-----------------------------------|
-----------------------------------|-----------------------------------|


                                       Puente                                
  ^  v ^  PM PM PM ^  v ^  PM PM PM    ^      v ^   PM PM PM PM PM PM PM PM  
  E  S E  S  S  S  E  S E  S  S  S     E      S E.  S  S  E  S  S  E  S  S   
------------------------------------|---------------------------------------|
--6--6-6-----------5--5-5-----------|--6------6-6---------------------------|
--5--5-5-----------5--5-5-----------|--7------7-7---------------------------|
----------0--0--0----------0--0--0--|--7------7-7---0--0--0--0--0--0--0--0--|
------------------------------------|---------------------------------------|
------------------------------------|---------------------------------------|


  ^  v ^   PM PM PM PM PM PM PM PM    ^  v ^   PM PM PM PM PM PM PM PM  
  E  S E.  S  S  E  S  S  E  S  S     E  S E.  S  S  E  S  S  E  S  S   
-----------------------------------|-----------------------------------|
--5--5-5---------------------------|--6--6-6---------------------------|
--5--5-5---------------------------|--7--7-7---------------------------|
--5--5-5---0--0--0--0--0--0--0--0--|--7--7-7---0--0--0--0--0--0--0--0--|
-----------------------------------|-----------------------------------|
-----------------------------------|-----------------------------------|


                                     Verso B                                
  ^  v ^   PM PM PM PM PM            ^       v ^   PM PM PM PM PM PM PM PM  
  E  S E.  S  S  E  S  S  S S S S    E       S E.  S  S  E  S  S  E  S  S   
----------------------------------|----------------------------------------|
--5--5-5--------------------------|--6-------6-6---------------------------|
--5--5-5----------------------5-7-|--7-------7-7---------------------------|
--5--5-5---0--0--0--0--0--5-7-----|--7-------7-7---0--0--0--0--0--0--0--0--|
----------------------------------|----------------------------------------|
----------------------------------|----------------------------------------|


  ^  v ^   PM PM PM PM PM PM PM PM    ^  v ^   PM PM PM PM PM PM PM PM  
  E  S E.  S  S  E  S  S  E  S  S     E  S E.  S  S  E  S  S  E  S  S   
-----------------------------------|-----------------------------------|
--5--5-5---------------------------|--6--6-6---------------------------|
--5--5-5---------------------------|--7--7-7---------------------------|
--5--5-5---0--0--0--0--0--0--0--0--|--7--7-7---0--0--0--0--0--0--0--0--|
-----------------------------------|-----------------------------------|
-----------------------------------|-----------------------------------|


  ^  v ^  PM PM PM ^  v ^  PM PM PM    ^  v ^   PM PM PM PM PM PM PM PM  
  E  S E  S  S  S  E  S E  S  S  S     E  S E.  S  S  E  S  S  E  S  S   
------------------------------------|-----------------------------------|
--6--6-6-----------5--5-5-----------|--6--6-6---------------------------|
--5--5-5-----------5--5-5-----------|--7--7-7---------------------------|
----------0--0--0----------0--0--0--|--7--7-7---0--0--0--0--0--0--0--0--|
------------------------------------|-----------------------------------|
------------------------------------|-----------------------------------|


  ^  v ^   PM PM PM PM PM PM PM PM    ^  v ^   PM PM PM PM PM PM PM PM  
  E  S E.  S  S  E  S  S  E  S  S     E  S E.  S  S  E  S  S  E  S  S   
-----------------------------------|-----------------------------------|
--5--5-5---------------------------|--6--6-6---------------------------|
--5--5-5---------------------------|--7--7-7---------------------------|
--5--5-5---0--0--0--0--0--0--0--0--|--7--7-7---0--0--0--0--0--0--0--0--|
-----------------------------------|-----------------------------------|
-----------------------------------|-----------------------------------|


                                    Pre-Coro                   
  ^  v ^  PM PM PM                                             
  E  S E  S  S  S  E   E  E  E      Q       Q    E   E  E  E   
--------------------------------|-----------------------------|
--6--6-6-----------5------------|-----------------------------|
--5--5-5-----------5------------|--------------------------5--|
----------0--0--0---------3--5--|--/7-------7----7s--5--------|
----------------------/5--------|-----------------------8-----|
--------------------------------|-----------------------------|


  E  Q    Q    E   E  E     Q    Q.      E  E   E      H.           E  E   
-------------------------|--------------------------|---------------------|
-------------------------|--------------------------|---------------------|
--L----------------------|--------------------------|---------------------|
-----7----5----7s--5-----|--5----5~------5-----/7~--|--L---------------5--|
----------------------8--|------------------8-------|---------------8-----|
-------------------------|--------------------------|---------------------|


   Q    Q    E   E  E  E     E  Q    Q    E   E  E     Q    Q.      E  E  E    
--------------------------|-------------------------|-------------------------|
--------------------------|-------------------------|-------------------------|
-----------------------5--|--L--7-------------------|-------------------------|
--/7----7----7s--5--------|----------5----7s--5-----|--5----5~------5---------|
--------------------8-----|----------------------8--|------------------8--7~--|
--------------------------|-------------------------|-------------------------|


                         Coro                                              
  H.            Q        H        E  S S E  S S    H        E  S S E  S S  
----------------------|-------------------------|-------------------------|
----------------------|-------------------------|-------------------------|
----------------------|-------------------------|-------------------------|
----------------------|--7--------L--x-x-7--x-x-|--5--------L--x-x-5--x-x-|
--L------------12\----|--5--------L--x-x-5--x-x-|--3--------L--x-x-3--x-x-|
---------------12\----|-------------------------|-------------------------|


  Q    E  E   S S E  E  S S    H        E  S S E  S S  
----------------------------|-------------------------|
----------------------------|-------------------------|
----------------------------|-------------------------|
--3----x----------------7-7-|--7--------L--x-x-7--x-x-|
--1----x--3s--5---5--x--5-5-|--5--------L--x-x-5--x-x-|
----------3s--5---5--x------|-------------------------|


  H        E  S S E  S S    H        E  S S E  S S  
-------------------------|-------------------------|
-------------------------|-------------------------|
-------------------------|-------------------------|
--7--------L--x-x-7--x-x-|--5--------L--x-x-5--x-x-|
--5--------L--x-x-5--x-x-|--3--------L--x-x-3--x-x-|
-------------------------|-------------------------|


  Q    E  E   S S E  E  S S    H        E  S S E  S S  
----------------------------|-------------------------|
----------------------------|-------------------------|
----------------------------|-------------------------|
--3----x----------------7-7-|--7--------L--x-x-7--x-x-|
--1----x--3s--5---5--x--5-5-|--5--------L--x-x-5--x-x-|
----------3s--5---5--x------|-------------------------|


  H        E  S S E  S S    H        E  S S E  S S  
-------------------------|-------------------------|
-------------------------|-------------------------|
-------------------------|-------------------------|
--7--------L--x-x-7--x-x-|--5--------L--x-x-5--x-x-|
--5--------L--x-x-5--x-x-|--3--------L--x-x-3--x-x-|
-------------------------|-------------------------|


  Q    E  E   S S E  E  S S    H        E  S S E  S S  
----------------------------|-------------------------|
----------------------------|-------------------------|
----------------------------|-------------------------|
--3----x----------------7-7-|--7--------L--x-x-7--x-x-|
--1----x--3s--5---5--x--5-5-|--5--------L--x-x-5--x-x-|
----------3s--5---5--x------|-------------------------|


  H        E  S S E  S S    H        E  S S E  S S  
-------------------------|-------------------------|
-------------------------|-------------------------|
-------------------------|-------------------------|
--7--------L--x-x-7--x-x-|--5--------L--x-x-5--x-x-|
--5--------L--x-x-5--x-x-|--3--------L--x-x-3--x-x-|
-------------------------|-------------------------|


                                                         Riff A                 
  Q    E  E   S S E  E  S S    H        E  S S Q         Q.      Q.       Q     
----------------------------|-----------------------|--------------------------|
----------------------------|-----------------------|--/10--------------/10----|
----------------------------|-----------------------|-----------10-------------|
--3----x----------------7-7-|--7--------L--x-x-7----|--------------------------|
--1----x--3s--5---5--x--5-5-|--5--------L--x-x-5----|--------------------------|
----------3s--5---5--x------|-----------------------|--------------------------|


  Q     E  E   H             Q.      Q.       Q       Q     E   E    H         
------------------------|--------------------------|--------------------------|
--8---------------------|--/10--------------/10----|--8----10--10~---L--------|
-------10--9~--L--------|-----------10-------------|--------------------------|
------------------------|--------------------------|--------------------------|
------------------------|--------------------------|--------------------------|
------------------------|--------------------------|--------------------------|


  Verso A                                                                    
  ^       v ^   PM PM PM PM PM PM PM PM    ^  v ^   PM PM PM PM PM PM PM PM  
  E       S E.  S  S  E  S  S  E  S  S     E  S E.  S  S  E  S  S  E  S  S   
----------------------------------------|-----------------------------------|
--6-------6-6---------------------------|--5--5-5---------------------------|
--7-------7-7---------------------------|--5--5-5---------------------------|
--7-------7-7---0--0--0--0--0--0--0--0--|--5--5-5---0--0--0--0--0--0--0--0--|
----------------------------------------|-----------------------------------|
----------------------------------------|-----------------------------------|


  ^  v ^   PM PM PM PM PM PM PM PM    ^  v ^  PM PM PM ^  v ^  PM PM PM  
  E  S E.  S  S  E  S  S  E  S  S     E  S E  S  S  S  E  S E  S  S  S   
-----------------------------------|------------------------------------|
--6--6-6---------------------------|--6--6-6-----------5--5-5-----------|
--7--7-7---------------------------|--5--5-5-----------5--5-5-----------|
--7--7-7---0--0--0--0--0--0--0--0--|----------0--0--0----------0--0--0--|
-----------------------------------|------------------------------------|
-----------------------------------|------------------------------------|


  ^  v ^   PM PM PM PM PM PM PM PM    ^  v ^   PM PM PM PM PM PM PM PM  
  E  S E.  S  S  E  S  S  E  S  S     E  S E.  S  S  E  S  S  E  S  S   
-----------------------------------|-----------------------------------|
--6--6-6---------------------------|--5--5-5---------------------------|
--7--7-7---------------------------|--5--5-5---------------------------|
--7--7-7---0--0--0--0--0--0--0--0--|--5--5-5---0--0--0--0--0--0--0--0--|
-----------------------------------|-----------------------------------|
-----------------------------------|-----------------------------------|


  ^  v ^   PM PM PM PM PM PM PM PM    ^  v ^  PM PM PM ^  v ^  PM PM PM  
  E  S E.  S  S  E  S  S  E  S  S     E  S E  S  S  S  E  S E  S  S  S   
-----------------------------------|------------------------------------|
--6--6-6---------------------------|--6--6-6-----------5--5-5-----------|
--7--7-7---------------------------|--5--5-5-----------5--5-5-----------|
--7--7-7---0--0--0--0--0--0--0--0--|----------0--0--0----------0--0--0--|
-----------------------------------|------------------------------------|
-----------------------------------|------------------------------------|


  Puente                                                                    
  ^      v ^   PM PM PM PM PM PM PM PM    ^  v ^   PM PM PM PM PM PM PM PM  
  E      S E.  S  S  E  S  S  E  S  S     E  S E.  S  S  E  S  S  E  S  S   
---------------------------------------|-----------------------------------|
--6------6-6---------------------------|--5--5-5---------------------------|
--7------7-7---------------------------|--5--5-5---------------------------|
--7------7-7---0--0--0--0--0--0--0--0--|--5--5-5---0--0--0--0--0--0--0--0--|
---------------------------------------|-----------------------------------|
---------------------------------------|-----------------------------------|


  ^  v ^   PM PM PM PM PM PM PM PM    ^  v ^   PM PM PM PM PM          
  E  S E.  S  S  E  S  S  E  S  S     E  S E.  S  S  E  S  S  S S S S  
-----------------------------------|----------------------------------|
--6--6-6---------------------------|--5--5-5--------------------------|
--7--7-7---------------------------|--5--5-5----------------------5-7-|
--7--7-7---0--0--0--0--0--0--0--0--|--5--5-5---0--0--0--0--0--5-7-----|
-----------------------------------|----------------------------------|
-----------------------------------|----------------------------------|


  Verso B                                                                    
  ^       v ^   PM PM PM PM PM PM PM PM    ^  v ^   PM PM PM PM PM PM PM PM  
  E       S E.  S  S  E  S  S  E  S  S     E  S E.  S  S  E  S  S  E  S  S   
----------------------------------------|-----------------------------------|
--6-------6-6---------------------------|--5--5-5---------------------------|
--7-------7-7---------------------------|--5--5-5---------------------------|
--7-------7-7---0--0--0--0--0--0--0--0--|--5--5-5---0--0--0--0--0--0--0--0--|
----------------------------------------|-----------------------------------|
----------------------------------------|-----------------------------------|


  ^  v ^   PM PM PM PM PM PM PM PM    ^  v ^  PM PM PM ^  v ^  PM PM PM  
  E  S E.  S  S  E  S  S  E  S  S     E  S E  S  S  S  E  S E  S  S  S   
-----------------------------------|------------------------------------|
--6--6-6---------------------------|--6--6-6-----------5--5-5-----------|
--7--7-7---------------------------|--5--5-5-----------5--5-5-----------|
--7--7-7---0--0--0--0--0--0--0--0--|----------0--0--0----------0--0--0--|
-----------------------------------|------------------------------------|
-----------------------------------|------------------------------------|


  ^  v ^   PM PM PM PM PM PM PM PM    ^  v ^   PM PM PM PM PM PM PM PM  
  E  S E.  S  S  E  S  S  E  S  S     E  S E.  S  S  E  S  S  E  S  S   
-----------------------------------|-----------------------------------|
--6--6-6---------------------------|--5--5-5---------------------------|
--7--7-7---------------------------|--5--5-5---------------------------|
--7--7-7---0--0--0--0--0--0--0--0--|--5--5-5---0--0--0--0--0--0--0--0--|
-----------------------------------|-----------------------------------|
-----------------------------------|-----------------------------------|


  ^  v ^   PM PM PM PM PM PM PM PM    ^  v ^  PM PM PM               
  E  S E.  S  S  E  S  S  E  S  S     E  S E  S  S  S  E   E  E  E   
-----------------------------------|--------------------------------|
--6--6-6---------------------------|--6--6-6-----------5------------|
--7--7-7---------------------------|--5--5-5-----------5------------|
--7--7-7---0--0--0--0--0--0--0--0--|----------0--0--0---------3--5--|
-----------------------------------|----------------------/5--------|
-----------------------------------|--------------------------------|


   Pre-Coro                                             
   Q       Q    E   E  E  E     E  Q    Q    E   E  E   
-----------------------------|-------------------------|
-----------------------------|-------------------------|
--------------------------5--|--L----------------------|
--/7-------7----7s--5--------|-----7----5----7s--5-----|
-----------------------8-----|----------------------8--|
-----------------------------|-------------------------|


  Q    Q.      E  E   E      H        E  E  E  E      Q    Q    E   E  E  E   
--------------------------|-----------------------|--------------------------|
--------------------------|-----------------------|--------------------------|
--------------------------|-----------------------|-----------------------5--|
--5----5~------5-----/7~--|--L--------L--7-----5--|--/7----7----7s--5--------|
------------------8-------|-----------------8-----|--------------------8-----|
--------------------------|-----------------------|--------------------------|


  E  Q    Q    E   E  E     Q    Q.      E  E  E      W                 
-------------------------|-------------------------|-------------------|
-------------------------|-------------------------|-------------------|
--L--7-------------------|-------------------------|-------------------|
----------5----7s--5-----|--5----5~------5---------|-------------------|
----------------------8--|------------------8--7~--|--L----------------|
-------------------------|-------------------------|-------------------|


  Coro                                              
  H        E  S S E  S S    H        E  S S E  S S  
-------------------------|-------------------------|
-------------------------|-------------------------|
-------------------------|-------------------------|
--7--------L--x-x-7--x-x-|--5--------L--x-x-5--x-x-|
--5--------L--x-x-5--x-x-|--3--------L--x-x-3--x-x-|
-------------------------|-------------------------|


  Q    E  E   S S E  E  S S    H        E  S S E  S S  
----------------------------|-------------------------|
----------------------------|-------------------------|
----------------------------|-------------------------|
--3----x----------------7-7-|--7--------L--x-x-7--x-x-|
--1----x--3s--5---5--x--5-5-|--5--------L--x-x-5--x-x-|
----------3s--5---5--x------|-------------------------|


  H        E  S S E  S S    H        E  S S E  S S  
-------------------------|-------------------------|
-------------------------|-------------------------|
-------------------------|-------------------------|
--7--------L--x-x-7--x-x-|--5--------L--x-x-5--x-x-|
--5--------L--x-x-5--x-x-|--3--------L--x-x-3--x-x-|
-------------------------|-------------------------|


  Q    E  E   S S E  E  S S    H        E  S S E  S S  
----------------------------|-------------------------|
----------------------------|-------------------------|
----------------------------|-------------------------|
--3----x----------------7-7-|--7--------L--x-x-7--x-x-|
--1----x--3s--5---5--x--5-5-|--5--------L--x-x-5--x-x-|
----------3s--5---5--x------|-------------------------|


  H        E  S S E  S S    H        E  S S E  S S  
-------------------------|-------------------------|
-------------------------|-------------------------|
-------------------------|-------------------------|
--7--------L--x-x-7--x-x-|--5--------L--x-x-5--x-x-|
--5--------L--x-x-5--x-x-|--3--------L--x-x-3--x-x-|
-------------------------|-------------------------|


  Q    E  E   S S E  E  S S    H        E  S S E  S S  
----------------------------|-------------------------|
----------------------------|-------------------------|
----------------------------|-------------------------|
--3----x----------------7-7-|--7--------L--x-x-7--x-x-|
--1----x--3s--5---5--x--5-5-|--5--------L--x-x-5--x-x-|
----------3s--5---5--x------|-------------------------|


  H        E  S S E  S S    H        E  S S E  S S    Q    E  E   S S E  E  E   
-------------------------|-------------------------|---------------------------|
-------------------------|-------------------------|---------------------------|
-------------------------|-------------------------|---------------------------|
--7--------L--x-x-7--x-x-|--5--------L--x-x-5--x-x-|--3----x----------------7--|
--5--------L--x-x-5--x-x-|--3--------L--x-x-3--x-x-|--1----x--3s--5---5--x--5--|
-------------------------|-------------------------|----------3s--5---5--x-----|


                      Break                                                     
  W                   W                   W                   W                 
-------------------|-------------------|-------------------|-------------------|
-------------------|-------------------|-------------------|-------------------|
-------------------|-------------------|-------------------|-------------------|
--7----------------|--L----------------|--L----------------|--L----------------|
--5----------------|--L----------------|--L----------------|--L----------------|
-------------------|-------------------|-------------------|-------------------|


                      Riff B                                  
                                        PM PM PM PM PM PM PM  
  W                   E      S E  S E.  S  S  S  S  S  S  S   
-------------------|-----------------------------------------|
-------------------|-----------------------------------------|
-------------------|-----------------------------------------|
--L----------------|--9------x-9--x-9---9--9--9--9--9--9--9--|
--L----------------|--7------x-7--x-7---7--7--7--7--7--7--7--|
-------------------|-----------------------------------------|


                PM PM PM PM PM PM PM                  PM PM PM PM PM PM PM  
  E  S E  S E.  S  S  S  S  S  S  S     E  S E  S E.  S  S  S  S  S  S  S   
-------------------------------------|-------------------------------------|
-------------------------------------|-------------------------------------|
-------------------------------------|-------------------------------------|
--9--x-9--x-9---9--9--9--9--9--9--9--|--9--x-9--x-9---9--9--9--9--9--9--9--|
--7--x-7--x-7---7--7--7--7--7--7--7--|--7--x-7--x-7---7--7--7--7--7--7--7--|
-------------------------------------|-------------------------------------|


                PM PM PM PM PM PM PM                  PM PM PM PM PM PM PM  
  E  S E  S E.  S  S  S  S  S  S  S     E  S E  S E.  S  S  S  S  S  S  S   
-------------------------------------|-------------------------------------|
-------------------------------------|-------------------------------------|
-------------------------------------|-------------------------------------|
--9--x-9--x-9---9--9--9--9--9--9--9--|--9--x-9--x-9---9--9--9--9--9--9--9--|
--7--x-7--x-7---7--7--7--7--7--7--7--|--7--x-7--x-7---7--7--7--7--7--7--7--|
-------------------------------------|-------------------------------------|


                PM PM PM PM PM PM PM                  PM PM PM PM PM PM PM  
  E  S E  S E.  S  S  S  S  S  S  S     E  S E  S E.  S  S  S  S  S  S  S   
-------------------------------------|-------------------------------------|
-------------------------------------|-------------------------------------|
-------------------------------------|-------------------------------------|
--9--x-9--x-9---9--9--9--9--9--9--9--|--9--x-9--x-9---9--9--9--9--9--9--9--|
--7--x-7--x-7---7--7--7--7--7--7--7--|--7--x-7--x-7---7--7--7--7--7--7--7--|
-------------------------------------|-------------------------------------|


                            Interludio 1                        
  E  S E  S E  H            E.           E.   E   E.   E.   E   
------------------------|--------------------------------------|
------------------------|------------------------10---10---11--|
------------------------|--10-----------10---12----------------|
--9--x-9--x-9--L--------|--------------------------------------|
--7--x-7--x-7--L--------|--------------------------------------|
------------------------|--------------------------------------|


   E.   E.   E   E.   E.   S   S      E   S  E.    H         S   S   
----------------------------------|---------------------------------|
--13---13---15--17---17---17h-18h-|--17--18-17~----L--------17h-18h-|
----------------------------------|---------------------------------|
----------------------------------|---------------------------------|
----------------------------------|---------------------------------|
----------------------------------|---------------------------------|


                              Riff B                                  
                                                PM PM PM PM PM PM PM  
   E   S  S   H.              E      S E  S E.  S  S  S  S  S  S  S   
---------------------------|-----------------------------------------|
--17--18-17~--L------------|-----------------------------------------|
---------------------------|-----------------------------------------|
---------------------------|--9------x-9--x-9---9--9--9--9--9--9--9--|
---------------------------|--7------x-7--x-7---7--7--7--7--7--7--7--|
---------------------------|-----------------------------------------|


                PM PM PM PM PM PM PM                  PM PM PM PM PM PM PM  
  E  S E  S E.  S  S  S  S  S  S  S     E  S E  S E.  S  S  S  S  S  S  S   
-------------------------------------|-------------------------------------|
-------------------------------------|-------------------------------------|
-------------------------------------|-------------------------------------|
--9--x-9--x-9---9--9--9--9--9--9--9--|--9--x-9--x-9---9--9--9--9--9--9--9--|
--7--x-7--x-7---7--7--7--7--7--7--7--|--7--x-7--x-7---7--7--7--7--7--7--7--|
-------------------------------------|-------------------------------------|


                                         Interludio 1                        
                PM PM PM PM PM PM PM                                         
  E  S E  S E.  S  S  S  S  S  S  S      E.           E.   E   E.   E.   E   
-------------------------------------|--------------------------------------|
-------------------------------------|------------------------10---10---11--|
-------------------------------------|--10-----------10---12----------------|
--9--x-9--x-9---9--9--9--9--9--9--9--|--------------------------------------|
--7--x-7--x-7---7--7--7--7--7--7--7--|--------------------------------------|
-------------------------------------|--------------------------------------|


   E.   E.   E   E.   E.   S   S      E   S  E.    H         S   S   
----------------------------------|---------------------------------|
--13---13---15--17---17---17h-18h-|--17--18-17~----L--------17h-18h-|
----------------------------------|---------------------------------|
----------------------------------|---------------------------------|
----------------------------------|---------------------------------|
----------------------------------|---------------------------------|


                                Interludio 2a                
   E   S  S   H.                Q.           Q.        Q     
---------------------------|--------------------------------|
--17--18-17~--L------------|--/10--------------------/10----|
---------------------------|----------------10~-------------|
---------------------------|--------------------------------|
---------------------------|--------------------------------|
---------------------------|--------------------------------|


  Q     E  E   H             Q.      Q.        Q       Q     E  E   H         
------------------------|---------------------------|------------------------|
--8---------------------|--/10---------------/10----|--8--------8~--L--------|
-------10--9~--L--------|-----------10~-------------|-------10---------------|
------------------------|---------------------------|------------------------|
------------------------|---------------------------|------------------------|
------------------------|---------------------------|------------------------|


   Interludio 2b                                          
   Q.            Q.        Q       Q     E  E   H         
--------------------------------|------------------------|
--10---------------------/10----|--8---------------------|
----------------10~-------------|-------10--9~--L--------|
--------------------------------|------------------------|
--------------------------------|------------------------|
--------------------------------|------------------------|


   Q.      Q.       Q       Q     E      E    Q.      S S  
-------------------------|--------------------------------|
--10---------------10----|--8----10--10g11~---L------10-8-|
----------10~------------|--------------------------------|
-------------------------|--------------------------------|
-------------------------|--------------------------------|
-------------------------|--------------------------------|


   Puente                                                     
   Q.       S S  E   E    E   E      S S  H.             S S  
---------------------------------|---------------------------|
--10~------10-8-10--11--/13--11--|--10-8-10~------------10-8-|
---------------------------------|---------------------------|
---------------------------------|---------------------------|
---------------------------------|---------------------------|
---------------------------------|---------------------------|


   Q.      S S Q.      S S    Q.      S S Q      Q      
---------------------------|---------------------------|
--10~------8-6-8~------6-5-|--6~------5-3-5~-----------|
---------------------------|---------------------------|
---------------------------|---------------------------|
---------------------------|--------------------12\----|
---------------------------|--------------------12\----|


  Coro                                                                          
  H        E  S S E  S S    H        E  S S E  S S    Q    E  E   S S E  E  E   
-------------------------|-------------------------|---------------------------|
-------------------------|-------------------------|---------------------------|
-------------------------|-------------------------|---------------------------|
--7--------L--x-x-7--x-x-|--5--------L--x-x-5--x-x-|--3----x-------------------|
--5--------L--x-x-5--x-x-|--3--------L--x-x-3--x-x-|--1----x--3s--5---5--x-----|
-------------------------|-------------------------|----------3s--5---5--x-----|


  Solo Adrian Smith                                                   
  E                  S  S  Q      S  S   Q.         W                 
------------------------------------------------|--------------------|
--------------------------13--------------------|--------------------|
--------------------10--L-12b----12-10~--L------|---L----------------|
------------------------------------------------|--------------------|
------------------------------------------------|--------------------|
------------------------------------------------|--------------------|


  H        E  S S E  S S    Q    E  E   S S E  E  S S  
-------------------------|----------------------------|
-------------------------|----------------------------|
-------------------------|----------------------------|
--5--------L--x-x-5--x-x-|--3----x----------------7-7-|
--3--------L--x-x-3--x-x-|--1----x--3s--5---5--x--5-5-|
-------------------------|----------3s--5---5--x------|


  Q.      E.    S  S  S  S  S  S  S     Q.       Q     Q     E   
------------------------------------|---------------------------|
---------------18-15-13-------------|---------------------------|
---------17b------------14-12-------|---------------------------|
--7---------------------------15-12-|--12~-------L----14----15--|
--5---------------------------------|---------------------------|
------------------------------------|---------------------------|


   Q.       Q     Q     E      E.   E.   E  E.   E.   S S  
---------------------------|------------------------------|
---------------------------|------------------------------|
--12~-------L----14----15--|--14---12---10--9---10---12-9-|
---------------------------|------------------------------|
---------------------------|------------------------------|
---------------------------|------------------------------|


     SH                                                                
     W                   Q.      E      H            W                 
----------------------|--------------------------|--------------------|
----------------------|---------18brb---L--------|---L----------------|
--<>10----------------|--------------------------|--------------------|
----------------------|--------------------------|--------------------|
----------------------|--------------------------|--------------------|
----------------------|--------------------------|--------------------|


  E   Q.        Q      Q         E.     S  H          Q      
-----------------------------|------------------------------|
-----20br------20b----20b----|--20br---18-------------------|
-----------------------------|------------19~---------------|
-----------------------------|------------------------------|
-----------------------------|-----------------------12\----|
-----------------------------|-----------------------12\----|


   Outro Coro                                         
   S          S  S  S  S  S  S  S  S  S  S  S  Q      
----------------13-17-13----------13-17-13-----------|
-------------15----------------15--------------------|
--14------------------------14----------------14~----|
-------------------------15----------------15--------|
-----------------------------------------------------|
-----------------------------------------------------|


   E   Q.      S  S  Q      E      H        Q.      S  S  
--------------------------------|------------------------|
--------------------------------|------------------13-13-|
---L\---------12-10-12~-----L\--|------------------12-12-|
--------------------------------|------------------------|
--------------------------------|------------------------|
--------------------------------|------------------------|


   Q     E.     S  H            H        E  S S E  S S  
-----------------------------|-------------------------|
--13----13-------------------|-------------------------|
--12----12br---10------------|-------------------------|
------------------12~--------|--7--------L--x-x-7--x-x-|
-----------------------------|--5--------L--x-x-5--x-x-|
-----------------------------|-------------------------|


  H        E  S S E  S S    Q     Q      S  S  Q      S  S  
-------------------------|---------------------------------|
-------------------------|-------13b----13-10-13b----13-10-|
-------------------------|---------------------------------|
--5--------L--x-x-5--x-x-|---------------------------------|
--3--------L--x-x-3--x-x-|---------------------------------|
-------------------------|---------------------------------|


                                                     |---3---|      
   W                     E   S  S  E   S  S  E   E   S   S   S  E   
---------------------|---------------------------------------------|
--13b----------------|--15-----15-17--15-17-18--17--15h-17p-15-----|
---------------------|------17---------------------------------17--|
---------------------|---------------------------------------------|
---------------------|---------------------------------------------|
---------------------|---------------------------------------------|


   E    E   E   Q      S  S  Q        H.            E   S  S  
----------------------------------|--------------------------|
----------------------------------|--------------------------|
--12b--12--10--12b----12-10-12----|--------------------------|
----------------------------------|--12~---------------------|
----------------------------------|--------------------12-10-|
----------------------------------|--------------------------|


   E   E   E   E   E   E  E   E      W                     Q     H.             
---------------------------------|---------------------|-----------------------|
---------------------------------|---------------------|-----------------------|
--------------------------9--10--|--10b----------------|---L----17b------------|
------------------10--12---------|---------------------|-----------------------|
--12--10--12--13-----------------|---------------------|-----------------------|
---------------------------------|---------------------|-----------------------|


                               Outro                                  
  E   H          Q.            W                    W                 
---------------------------|--------------------|--------------------|
-----20b--------20pbr------|--------------------|--------------------|
---------------------------|--19----------------|---L----------------|
---------------------------|--------------------|--------------------|
---------------------------|--------------------|--------------------|
---------------------------|--------------------|--------------------|


   W                    W                    W                 
--------------------|--------------------|--------------------|
--------------------|--------------------|--------------------|
---L----------------|---L----------------|---L----------------|
--------------------|--------------------|--------------------|
--------------------|--------------------|--------------------|
--------------------|--------------------|--------------------|


                      Acoustic Outro                                  
  W                   H.             E  E     E  E  E  Q    E  E  E   
-------------------|-----------------0-----|-----0----------1--------|
-------------------|--------------------3--|--------3----------3-----|
-------------------|-----------------------|----------------------2--|
-------------------|-----------------------|--0----------------------|
-------------------|-----------------------|-------------------------|
-------------------|-----------------------|-----------0-------------|


  E  E  E  E  E  E  Q       E  E  E  E   E  E  E  E   
--1--------1-------------|--1--------1------1--------|
-----3--------3----------|-----3-----3---------3-----|
--------2--------2-------|-----------0h--2--------2--|
--------------------0----|--------0--0---------------|
-------------------------|---------------------------|
-------------------------|---------------------------|


                             Speech                       
                                    ^     ^               
  E  E  E  E  E  E  E  E     E      E  E  E   E  E  Q     
--------------1--------1--|---------0--L--0h--1-----1----|
-----3--------3--3-----3--|--3------3--L--3--------------|
--------2-----------------|---------2--L--2------2-------|
--0--------0--------0-----|---------0--L--0--------------|
--------------------------|------------------------------|
--------------------------|------------------------------|


   E   E  E  E  E  E  E  E     E  E  E  E  E  E  E  E   
---L---1--------1--------1--|--------------------0-----|
--(3)-----3--------3--------|--3--------------------3--|
-------------2--------2-----|-----2-----------0--------|
----------------------------|--------0-----2-----------|
----------------------------|-----------3--------------|
----------------------------|--------------------------|


  E  E  E  E  E  E  E  E     E  E  E  E  E  E  E  E   
--------------------------|--------------------------|
--------------3-----3--3--|-----------------------3--|
--0--------0-----0--------|--0-----0-----------0-----|
--------2-----------------|-----2-----2-----2--------|
-----3--------------------|--------------3-----------|
--------------------------|--------------------------|


  E  E  E  E  E  E  E  E     E  E  Q     Q    E  E     E  E  E  E  E  E  Q     
--------------------------|-------------------------|-------------------------|
-----3--3-----------------|--3-------------------3--|-----------3--------3----|
--0--------0-----0-----0--|-----0-------------------|-----2--------2----------|
--------------2-----2-----|-------------------------|--0--------------0-------|
--------------------------|-------------------0-----|--------0----------------|
--------------------------|--------3b----0----------|-------------------------|


  ^                                                                             
  H.           E  E     E  E  E   E    E   E  E  E     E   E  E  E  Q    E  E   
--1------------------|--------0---------------------|--------------------------|
--3---------------3--|-----------(3)-------3--------|-----------------------3--|
--2------------2-----|--2-------------(2)-----2-----|--2h--3--2--0--2----L-----|
--0------------------|-----0---------------------0--|--0------------0----L-----|
---------------------|------------------------------|--0------------0----L-----|
---------------------|------------------------------|--0------------0----L-----|


                               |----3----|                  
  E  E  E  E  E  E  E   E      Q    Q    Q    Q     E   E   
---------------------------|-------------------------------|
--------3--------3---------|----------------------------3--|
--2--------2--------2h--3--|--/5----3----0----2------------|
-----0--------0-----0------|---0----0----0----0----(0)-----|
---------------------------|------------------0------------|
---------------------------|------------------0------------|


  E  E  E  E  E  E  E   E     E  E  E  E  Q     E   E   
---------------------------|---------------------------|
--------3--------3---------|-----3------------------3--|
--2--------2--------2h--3--|-----------0-------(2)-----|
-----0--------0------------|--3-----2-----0------------|
---------------------------|---------------------------|
---------------------------|---------------------------|


   E    E   E  E  E  E  E  E     E  E  E.   S Q     E   E   
------------0-----------------|----------------------------|
---------------3-----3--------|----------------------------|
--(2)-------------2-----2-----|--2--3--5s---3-2---------2--|
-------(0)-----------------0--|--0--0--0------0----(0)-----|
------------------------------|----------------------------|
------------------------------|----------------------------|


                                                  ^                             
   E   E   E    E    E   E  E  E     E   E  E  E  H           W                 
-------------------------0--------|------------------------|-------------------|
--------------------(3)-----3-----|--3------------3--------|--L----------------|
-------2-------(2)-------------2--|--2h--3--------2--------|--L----------------|
--(0)-----(0)---------------------|--0------3--2--0--------|--L----------------|
----------------------------------|---------------0--------|--L----------------|
----------------------------------|---------------0--------|--L----------------|


  W                  
-------------------||
--L----------------||
--L----------------||
--L----------------||
--L----------------||
--L----------------||




Guitar #2:
                           
Dave Murray


                              Riff A                                       
     S    W                   Q.     Q.      Q       Q    E  E   H         
E||----|-------------------|----------------------|-----------------------|
B||----|-------------------|--6--------------6----|--5--------------------|
G||----|-------------------|---------7~-----------|-------7--5~--L--------|
D||----|-------------------|----------------------|-----------------------|
A||----|-------------------|----------------------|-----------------------|
D||----|-------------------|----------------------|-----------------------|


  Q.     Q.      Q       Q    E  E   H             Q.      Q.        Q     
----------------------|-----------------------|---------------------------|
--6--------------6----|--5--------------------|--/10---------------/10----|
---------7~-----------|-------7--5~--L--------|-----------10~-------------|
----------------------|-----------------------|---------------------------|
----------------------|-----------------------|---------------------------|
----------------------|-----------------------|---------------------------|


  Q     E  E   H           Q.     Q.      Q       Q    E  E   H         
------------------------|----------------------|-----------------------|
--8---------------------|--6--------------6----|--5--------------------|
-------10--9~--L--------|---------7~-----------|-------7--5~--L--------|
------------------------|----------------------|-----------------------|
------------------------|----------------------|-----------------------|
------------------------|----------------------|-----------------------|


  Verso A                                                    
  v                                                          
  W                    W                   W                 
--5----------------|--------------------|-------------------|
--6----------------|---8----------------|--6----------------|
--7----------------|---9----------------|--7----------------|
-------------------|--10----------------|--7----------------|
-------------------|--------------------|-------------------|
-------------------|--------------------|-------------------|


                       v                                      
  H        H           W                    W                 
--5-----------------|--5----------------|--------------------|
--6--------8--------|--6----------------|---8----------------|
-----------9--------|--7----------------|---9----------------|
--------------------|-------------------|--10----------------|
--------------------|-------------------|--------------------|
--------------------|-------------------|--------------------|


                                           Puente                         
                                                  PM PM PM PM PM PM       
  W                   H        H           Q      E  S  S  E  S  S  Q     
-------------------|--5-----------------|--------------------------------|
--6----------------|--6--------8--------|--6------------------------6----|
--7----------------|-----------9--------|--7------------------------7----|
--7----------------|--------------------|--7------0--0--0--0--0--0--7----|
-------------------|--------------------|--------------------------------|
-------------------|--------------------|--------------------------------|


       PM PM PM PM PM PM              PM PM PM PM PM PM       
  Q    E  S  S  E  S  S  Q       Q    E  S  S  E  S  S  Q     
------------------------------|------------------------------|
--5----------------------5----|--6----------------------6----|
--5----------------------5----|--7----------------------7----|
--5----0--0--0--0--0--0--5----|--7----0--0--0--0--0--0--7----|
------------------------------|------------------------------|
------------------------------|------------------------------|


                               Verso B                                
                               v                    v                 
  H.            S  S  S  S     W                    W                 
---------------------------|--10----------------|---8----------------|
--5---------------------10-|--10----------------|---8----------------|
--5---------------10-12----|--10----------------|---9----------------|
--5------------12----------|--------------------|--10----------------|
--3------------------------|--------------------|--------------------|
---------------------------|--------------------|--------------------|


  v                                        v                 
  W                   H        H           W                 
--5----------------|--5-----------------|--5----------------|
--6----------------|--6--------8--------|--6----------------|
--7----------------|-----------9--------|--7----------------|
--7----------------|--------------------|-------------------|
-------------------|--------------------|-------------------|
-------------------|--------------------|-------------------|


                           v                                             
   H.            E  S S    W                   H        E    E   E   E   
------------------------|--5----------------|--5------------------------|
---8-------------L----6-|--6----------------|--6--------8---------------|
---9-------------L--7---|--7----------------|-----------9-------10--12--|
--10-------------L------|-------------------|--------------/12----------|
------------------------|-------------------|---------------------------|
------------------------|-------------------|---------------------------|


    Pre-Coro                                                  
    Q       Q     E   E   E  E     E   Q    Q     E   E   E   
-----------------------------8--|--L-------------------------|
--/10------10----10s--8---------|-----10----8----10s--8------|
-------------------------10-----|------------------------10--|
--------------------------------|----------------------------|
--------------------------------|----------------------------|
--------------------------------|----------------------------|


  Q    Q.      E   E    E       H.            E  E   
----------------------------|-----------------------|
--8----8~------8------/10~--|---L----------------8--|
------------------10--------|----------------10-----|
----------------------------|-----------------------|
----------------------------|-----------------------|
----------------------------|-----------------------|


    Q     Q     E   E   E  E     E   Q    Q     E   E   E   
---------------------------8--|--L--10---------------------|
--/10----10----10s--8---------|-----------8----10s--8------|
-----------------------10-----|------------------------10--|
------------------------------|----------------------------|
------------------------------|----------------------------|
------------------------------|----------------------------|


                                                   Coro               
  Q    Q.      E   E   E       W                   H.           Q     
---------------------------|--------------------|--------------------|
--8----8~------8------10~--|---L----------------|--------------------|
------------------10-------|--------------------|--7-----------------|
---------------------------|--------------------|--7------------7----|
---------------------------|--------------------|--5------------5----|
---------------------------|--------------------|--0-----------------|


  H.           Q       Q.     Q    Q    E     W                 
--------------------|----------------------|-------------------|
--------------------|----------------------|-------------------|
--5-----------------|--3-------------------|--7----------------|
--5------------5----|--3------3----5----7--|--7----------------|
--3------------3----|--1------3----5----5--|--5----------------|
--------------------|---------3----5-------|-------------------|


  H.           Q       H.           Q       Q.     Q    Q    E   
--------------------|--------------------|----------------------|
--------------------|--------------------|----------------------|
--7-----------------|--5-----------------|--3-------------------|
--7------------7----|--5------------5----|--3------3----5----7--|
--5------------5----|--3------------3----|--1------3----5----5--|
--0-----------------|--------------------|---------3----5-------|


  W                   H.           Q       H.           Q     
-------------------|--------------------|--------------------|
-------------------|--------------------|--------------------|
--7----------------|--7-----------------|--5-----------------|
--7----------------|--7------------7----|--5------------5----|
--5----------------|--5------------5----|--3------------3----|
-------------------|--0-----------------|--------------------|


  Q.     Q    Q    E     W                   H.           Q     
----------------------|-------------------|--------------------|
----------------------|-------------------|--------------------|
--3-------------------|--7----------------|--7-----------------|
--3------3----5----7--|--7----------------|--7------------7----|
--1------3----5----5--|--5----------------|--5------------5----|
---------3----5-------|-------------------|--0-----------------|


  H.           Q       Q.     Q    Q    E     W                 
--------------------|----------------------|-------------------|
--------------------|----------------------|-------------------|
--5-----------------|--3-------------------|--7----------------|
--5------------5----|--3------3----5----7--|--7----------------|
--3------------3----|--1------3----5----5--|--5----------------|
--------------------|---------3----5-------|-------------------|


    Riff A                                                                  
    Q.      Q.        Q       Q     E  E   H           Q.     Q.      Q     
---------------------------|------------------------|----------------------|
--/10---------------/10----|--8---------------------|--6--------------6----|
-----------10~-------------|-------10--9~--L--------|---------7~-----------|
---------------------------|------------------------|----------------------|
---------------------------|------------------------|----------------------|
---------------------------|------------------------|----------------------|


                          Verso A                                
                          v                                      
  Q    E  E   H           W                    W                 
-----------------------|--5----------------|--------------------|
--5--------------------|--6----------------|---8----------------|
-------7--5~--L--------|--7----------------|---9----------------|
-----------------------|-------------------|--10----------------|
-----------------------|-------------------|--------------------|
-----------------------|-------------------|--------------------|


                                           v                 
  W                   H        H           W                 
-------------------|--5-----------------|--5----------------|
--6----------------|--6--------8--------|--6----------------|
--7----------------|-----------9--------|--7----------------|
--7----------------|--------------------|-------------------|
-------------------|--------------------|-------------------|
-------------------|--------------------|-------------------|


   W                   W                   H        H         
--------------------|-------------------|--5-----------------|
---8----------------|--6----------------|--6--------8--------|
---9----------------|--7----------------|-----------9--------|
--10----------------|--7----------------|--------------------|
--------------------|-------------------|--------------------|
--------------------|-------------------|--------------------|


  Puente                                                        
         PM PM PM PM PM PM              PM PM PM PM PM PM       
  Q      E  S  S  E  S  S  Q       Q    E  S  S  E  S  S  Q     
--------------------------------|------------------------------|
--6------------------------6----|--5----------------------5----|
--7------------------------7----|--5----------------------5----|
--7------0--0--0--0--0--0--7----|--5----0--0--0--0--0--0--5----|
--------------------------------|------------------------------|
--------------------------------|------------------------------|


                                                              Verso B           
       PM PM PM PM PM PM                                      v                 
  Q    E  S  S  E  S  S  Q       H.            S  S  S  S     W                 
------------------------------|---------------------------|--10----------------|
--6----------------------6----|--5---------------------10-|--10----------------|
--7----------------------7----|--5---------------10-12----|--10----------------|
--7----0--0--0--0--0--0--7----|--5------------12----------|--------------------|
------------------------------|--3------------------------|--------------------|
------------------------------|---------------------------|--------------------|


   v                   v                                      
   W                   W                   H        H         
---8----------------|--5----------------|--5-----------------|
---8----------------|--6----------------|--6--------8--------|
---9----------------|--7----------------|-----------9--------|
--10----------------|--7----------------|--------------------|
--------------------|-------------------|--------------------|
--------------------|-------------------|--------------------|


  v                                            v                 
  W                    H.            E  S S    W                 
--5----------------|------------------------|--5----------------|
--6----------------|---8-------------L----6-|--6----------------|
--7----------------|---9-------------L--7---|--7----------------|
-------------------|--10-------------L------|-------------------|
-------------------|------------------------|-------------------|
-------------------|------------------------|-------------------|


                                Pre-Coro                     
  H        E    E   E   E       Q       Q     E   E   E  E   
--5------------------------|-----------------------------8--|
--6--------8---------------|--/10------10----10s--8---------|
-----------9-------10--12--|-------------------------10-----|
--------------/12----------|--------------------------------|
---------------------------|--------------------------------|
---------------------------|--------------------------------|


  E   Q    Q     E   E   E     Q    Q.      E   E    E    
--L-------------------------|----------------------------|
-----10----8----10s--8------|--8----8~------8------/10~--|
------------------------10--|------------------10--------|
----------------------------|----------------------------|
----------------------------|----------------------------|
----------------------------|----------------------------|


   H         E   E   E  E       Q     Q     E   E   E  E   
---------------------------|---------------------------8--|
---L---------L--10------8--|--/10----10----10s--8---------|
--------------------10-----|-----------------------10-----|
---------------------------|------------------------------|
---------------------------|------------------------------|
---------------------------|------------------------------|


  E   Q    Q     E   E   E     Q    Q.      E   E   E       W                 
--L--10---------------------|---------------------------|--------------------|
-----------8----10s--8------|--8----8~------8------10~--|---L----------------|
------------------------10--|------------------10-------|--------------------|
----------------------------|---------------------------|--------------------|
----------------------------|---------------------------|--------------------|
----------------------------|---------------------------|--------------------|


  Coro                                                           
  H.           Q       H.           Q       Q.     Q    Q    E   
--------------------|--------------------|----------------------|
--------------------|--------------------|----------------------|
--7-----------------|--5-----------------|--3-------------------|
--7------------7----|--5------------5----|--3------3----5----7--|
--5------------5----|--3------------3----|--1------3----5----5--|
--0-----------------|--------------------|---------3----5-------|


  W                   H.           Q       H.           Q     
-------------------|--------------------|--------------------|
-------------------|--------------------|--------------------|
--7----------------|--7-----------------|--5-----------------|
--7----------------|--7------------7----|--5------------5----|
--5----------------|--5------------5----|--3------------3----|
-------------------|--0-----------------|--------------------|


  Q.     Q    Q    E     W                   H.           Q     
----------------------|-------------------|--------------------|
----------------------|-------------------|--------------------|
--3-------------------|--7----------------|--7-----------------|
--3------3----5----7--|--7----------------|--7------------7----|
--1------3----5----5--|--5----------------|--5------------5----|
---------3----5-------|-------------------|--0-----------------|


  H.           Q       Q.     Q    Q    E     W                 
--------------------|----------------------|-------------------|
--------------------|----------------------|-------------------|
--5-----------------|--3-------------------|--7----------------|
--5------------5----|--3------3----5----7--|--7----------------|
--3------------3----|--1------3----5----5--|--5----------------|
--------------------|---------3----5-------|-------------------|


  H.           Q       H.           Q       Q.     Q    Q    E   
--------------------|--------------------|----------------------|
--------------------|--------------------|----------------------|
--7-----------------|--5-----------------|--3-------------------|
--7------------7----|--5------------5----|--3------3----5----7--|
--5------------5----|--3------------3----|--1------3----5----5--|
--0-----------------|--------------------|---------3----5-------|


                      Break                                                     
  W                   W                   W                   W                 
-------------------|-------------------|-------------------|-------------------|
-------------------|-------------------|-------------------|-------------------|
--7----------------|--L----------------|--L----------------|--L----------------|
--7----------------|--L----------------|--L----------------|--L----------------|
--5----------------|--L----------------|--L----------------|--L----------------|
-------------------|-------------------|-------------------|-------------------|


                        Riff B                       
                                PM                   
  W                     E.   E  S  E  E  E  S S S S  
-------------------|--------------------------------|
-------------------|--------------------------------|
--L----------------|--------------------------------|
--L----------------|---------------7--L--5--5-5-5-5-|
--L----------------|--5g7----7--7-------------------|
-------------------|--------------------------------|


         PM                               PM                   
  E.  E  S  E.  S S S S S S S      E.  E  S  E  E  E  S S S S  
------------------------------|-------------------------------|
------------------------------|-------------------------------|
------------------------------|-------------------------------|
--4---5-----------------------|--------------7--L--5--5-5-5-5-|
---------5--7---7-7-7-7-7-7-7-|--5g7---7--7-------------------|
------------------------------|-------------------------------|


         PM                               PM                   
  E.  E  S  E.  S S S S S S S      E.  E  S  E  E  E  S S S S  
------------------------------|-------------------------------|
------------------------------|-------------------------------|
------------------------------|-------------------------------|
--4---5-----------------------|--------------7--L--5--5-5-5-5-|
---------5--7---7-7-7-7-7-7-7-|--5g7---7--7-------------------|
------------------------------|-------------------------------|


         PM                               PM                   
  E.  E  S  E.  S S S S S S S      E.  E  S  E  E  E  S S S S  
------------------------------|-------------------------------|
------------------------------|-------------------------------|
------------------------------|-------------------------------|
--4---5-----------------------|--------------7--L--5--5-5-5-5-|
---------5--7---7-7-7-7-7-7-7-|--5g7---7--7-------------------|
------------------------------|-------------------------------|


                           Interludio 1                                       
         PM                                                                   
  E.  E  S  E  H           E.           S H.              E.  S H.            
------------------------|------------------------------|---------------------|
------------------------|------------------------------|---------------------|
------------------------|------------------------------|---------------------|
--4---5-----2--L--------|--3------------3-L------------|--3---3-L------------|
---------5--2--L--------|--3------------3-L------------|--3---3-L------------|
------------------------|--3------------3-L------------|--3---3-L------------|


     PM    PM     PM PM PM PM PM PM PM       PM    PM     PM PM PM PM PM PM PM  
  E  S  E  S  E.  S  S  S  S  S  S  S     E  S  E  S  E.  S  S  S  S  S  S  S   
---------------------------------------|---------------------------------------|
---------------------------------------|---------------------------------------|
---------------------------------------|---------------------------------------|
---------------------------------------|---------------------------------------|
--2-----2-----2------------------------|--2-----2-----2------------------------|
--2--2--2--2--2---2--2--2--2--2--2--2--|--2--2--2--2--2---2--2--2--2--2--2--2--|


    Riff B                                                      
            PM                            PM                    
    E.   E  S  E  E  E  S S S S    E.  E  S  E.  S S S S S S S  
--------------------------------|------------------------------|
--------------------------------|------------------------------|
--------------------------------|------------------------------|
---------------7--L--5--5-5-5-5-|--4---5-----------------------|
--5g7----7--7-------------------|---------5--7---7-7-7-7-7-7-7-|
--------------------------------|------------------------------|


           PM                            PM                    
    E.  E  S  E  E  E  S S S S    E.  E  S  E.  S S S S S S S  
-------------------------------|------------------------------|
-------------------------------|------------------------------|
-------------------------------|------------------------------|
--------------7--L--5--5-5-5-5-|--4---5-----------------------|
--5g7---7--7-------------------|---------5--7---7-7-7-7-7-7-7-|
-------------------------------|------------------------------|


  Interludio 1                                       
  E.           S H.              E.  S H.            
------------------------------|---------------------|
------------------------------|---------------------|
------------------------------|---------------------|
--3------------3-L------------|--3---3-L------------|
--3------------3-L------------|--3---3-L------------|
--3------------3-L------------|--3---3-L------------|


     PM    PM     PM PM PM PM PM PM PM       PM    PM     PM PM PM PM PM PM PM  
  E  S  E  S  E.  S  S  S  S  S  S  S     E  S  E  S  E.  S  S  S  S  S  S  S   
---------------------------------------|---------------------------------------|
---------------------------------------|---------------------------------------|
---------------------------------------|---------------------------------------|
---------------------------------------|---------------------------------------|
--2-----2-----2------------------------|--2-----2-----2------------------------|
--2--2--2--2--2---2--2--2--2--2--2--2--|--2--2--2--2--2---2--2--2--2--2--2--2--|


   Interludio 2a                                                                
   Q.           Q.       Q       Q    E  E   H            Q.     Q.       Q     
------------------------------|-----------------------|------------------------|
--/6--------------------/6----|--5--------------------|--/6--------------/6----|
----------------7~------------|-------7--5~--L--------|----------7~------------|
------------------------------|-----------------------|------------------------|
------------------------------|-----------------------|------------------------|
------------------------------|-----------------------|------------------------|


                            Interludio 2b                
  Q    E  E   H             Q.           Q.        Q     
-----------------------|--------------------------------|
--5----6--5~--L--------|--/10--------------------/10----|
-----------------------|----------------10~-------------|
-----------------------|--------------------------------|
-----------------------|--------------------------------|
-----------------------|--------------------------------|


  Q     E  E   H           Q.     Q.      Q       Q    E    E   Q.     S S  
------------------------|----------------------|---------------------------|
--8---------------------|--6--------------6----|--5----6--6g8~--L----------|
-------10--9~--L--------|---------7~-----------|---------------------------|
------------------------|----------------------|-----------------------7-5-|
------------------------|----------------------|---------------------------|
------------------------|----------------------|---------------------------|


  Puente                                                                       
  Q.      S S E  E  E  E     S S H.            S S    Q.      S S Q.      S S  
--------------------------|------------------------|--------------------------|
--------------------------|------------------------|--------------------------|
--------------------5-----|------------------------|--------------------------|
--7~------7-5-7--8-----8--|--7-5-7~------------7-5-|--7~------5-3-5~------3-2-|
--------------------------|------------------------|--------------------------|
--------------------------|------------------------|--------------------------|


                            Coro                                    
  Q.      S S Q     Q       H.           Q       H.           Q     
-------------------------|--------------------|--------------------|
-------------------------|--------------------|--------------------|
-------------------------|--7-----------------|--5-----------------|
--3~------2-0-2~---------|--7------------7----|--5------------5----|
--------------------3----|--5------------5----|--3------------3----|
-------------------------|--0-----------------|--------------------|


                         Solo Adrian Smith                       
  Q.     Q    Q    E     W                    H.           Q     
----------------------|--------------------|--------------------|
----------------------|--------------------|--------------------|
--3-------------------|--7-----------------|--7-----------------|
--3------3----5----7--|--7-----------------|--7------------7----|
--1------3----5----5--|--5-----------------|--5------------5----|
---------3----5-------|--------------------|--0-----------------|


  H.           Q       Q.     Q    Q    E     W                 
--------------------|----------------------|-------------------|
--------------------|----------------------|-------------------|
--5-----------------|--3-------------------|--7----------------|
--5------------5----|--3------3----5----7--|--7----------------|
--3------------3----|--1------3----5----5--|--5----------------|
--------------------|---------3----5-------|-------------------|


  H.           Q       H.           Q       Q.     Q    Q    E   
--------------------|--------------------|----------------------|
--------------------|--------------------|----------------------|
--7-----------------|--5-----------------|--3-------------------|
--7------------7----|--5------------5----|--3------3----5----7--|
--5------------5----|--3------------3----|--1------3----5----5--|
--0-----------------|--------------------|---------3----5-------|


  W                   H.           Q       H.           Q     
-------------------|--------------------|--------------------|
-------------------|--------------------|--------------------|
--7----------------|--7-----------------|--5-----------------|
--7----------------|--7------------7----|--5------------5----|
--5----------------|--5------------5----|--3------------3----|
-------------------|--0-----------------|--------------------|


                                             Outro Coro         
  Q.     Q    Q    E     W                   H.           Q     
----------------------|-------------------|--------------------|
----------------------|-------------------|--------------------|
--3-------------------|--7----------------|--7-----------------|
--3------3----5----7--|--7----------------|--7------------7----|
--1------3----5----5--|--5----------------|--5------------5----|
---------3----5-------|-------------------|--0-----------------|


  H.           Q       Q.     Q    Q    E     W                 
--------------------|----------------------|-------------------|
--------------------|----------------------|-------------------|
--5-----------------|--3-------------------|--7----------------|
--5------------5----|--3------3----5----7--|--7----------------|
--3------------3----|--1------3----5----5--|--5----------------|
--------------------|---------3----5-------|-------------------|


  H.           Q       H.           Q       Q.     Q    Q    E   
--------------------|--------------------|----------------------|
--------------------|--------------------|----------------------|
--7-----------------|--5-----------------|--3-------------------|
--7------------7----|--5------------5----|--3------3----5----7--|
--5------------5----|--3------------3----|--1------3----5----5--|
--0-----------------|--------------------|---------3----5-------|


  W                   H.           Q       H.           Q     
-------------------|--------------------|--------------------|
-------------------|--------------------|--------------------|
--7----------------|--7-----------------|--5-----------------|
--7----------------|--7------------7----|--5------------5----|
--5----------------|--5------------5----|--3------------3----|
-------------------|--0-----------------|--------------------|


  Q.     Q    Q    E     W                   H.           Q     
----------------------|-------------------|--------------------|
----------------------|-------------------|--------------------|
--3-------------------|--7----------------|--7-----------------|
--3------3----5----7--|--7----------------|--7------------7----|
--1------3----5----5--|--5----------------|--5------------5----|
---------3----5-------|-------------------|--0-----------------|


                                              Outro             
  H.           Q       Q.     Q    Q    E     W                 
--------------------|----------------------|-------------------|
--------------------|----------------------|-------------------|
--5-----------------|--3-------------------|--7----------------|
--5------------5----|--3------3----5----7--|--7----------------|
--3------------3----|--1------3----5----5--|--5----------------|
--------------------|---------3----5-------|-------------------|


  W                   W                   W                   W                 
-------------------|-------------------|-------------------|-------------------|
-------------------|-------------------|-------------------|-------------------|
--L----------------|--L----------------|--L----------------|--L----------------|
--L----------------|--L----------------|--L----------------|--L----------------|
--L----------------|--L----------------|--L----------------|--L----------------|
-------------------|-------------------|-------------------|-------------------|


                             Acoustic Outro                
       ^    ^    ^                                         
  Q    Q    Q    S  S  E     H              E  E  E   E    
--------------------------|-----------------------0h--1h--|
-------6----6----5h-6p-5--|--L----------------------------|
-------5----5----5--------|--------------------3----------|
-------7----7----7--------|-----------------0-------------|
--------------------------|-------------------------------|
--------------------------|-------------------------------|


  H        E   S    S    Q        W                   W                 
--0--------L-------------------|-------------------|-------------------|
--------------(3)s-(5)s-(3)----|--L----------------|-------------------|
-------------------------------|-------------------|-------------------|
-------------------------------|-------------------|-------------------|
-------------------------------|-------------------|-------------------|
-------------------------------|-------------------|-------------------|


  W                   W                  
-------------------|-------------------||
-------------------|-------------------||
-------------------|-------------------||
-------------------|-------------------||
-------------------|-------------------||
-------------------|-------------------||




Guitar #3:
                            
Janick Gers


                              Riff A                                
                                     PM PM PM       PM PM PM PM PM  
     S    W                   E      S  S  E  Q     S  S  E  S  S   
E||----|-------------------|---------------------------------------|
B||----|-------------------|---------------------------------------|
G||----|-------------------|---------------------------------------|
D||----|-------------------|--7---------------7~-------------------|
A||----|-------------------|--8------8--8--8--5~----5--5--8--8--8--|
D||----|-------------------|---------------------------------------|


                 PM PM PM PM PM       PM PM PM       PM PM PM PM PM  
  Q    E  E   E  S  S  E  S  S     E  S  S  E  Q     S  S  E  S  S   
--------------------------------|-----------------------------------|
--------------------------------|-----------------------------------|
--------------------------------|-----------------------------------|
--------------------------------|--7-----------7~-------------------|
--7----5--3~--L-----------------|--8--8--8--8--5~----5--5--8--8--8--|
-----------------0--0--0--0--0--|-----------------------------------|


                 PM PM PM PM PM       PM PM PM       PM PM PM PM PM  
  Q    E  E   E  S  S  E  S  S     E  S  S  E  Q     S  S  E  S  S   
--------------------------------|-----------------------------------|
--------------------------------|-----------------------------------|
--------------------------------|-----------------------------------|
--------------------------------|--7-----------7~-------------------|
--7----5--3~--L-----------------|--8--8--8--8--5~----5--5--8--8--8--|
-----------------0--0--0--0--0--|-----------------------------------|


                 PM PM PM PM PM       PM PM PM       PM PM PM PM PM  
  Q    E  E   E  S  S  E  S  S     E  S  S  E  Q     S  S  E  S  S   
--------------------------------|-----------------------------------|
--------------------------------|-----------------------------------|
--------------------------------|-----------------------------------|
--------------------------------|--7-----------7~-------------------|
--7----5--3~--L-----------------|--8--8--8--8--5~----5--5--8--8--8--|
-----------------0--0--0--0--0--|-----------------------------------|


                                   Verso A                             
                 PM PM PM PM PM            PM PM PM PM PM PM PM PM PM  
  Q    E  E   E  S  S  E  S  S     Q       E  S  S  E  S  S  E  S  S   
--------------------------------|-------------------------------------|
--------------------------------|-------------------------------------|
--------------------------------|-------------------------------------|
--------------------------------|--7----------------------------------|
--7----5--3~--L-----------------|--5----------------------------------|
-----------------0--0--0--0--0--|--0-------0--0--0--0--0--0--0--0--0--|


     PM PM PM PM PM PM PM PM PM PM PM       PM PM PM PM PM PM PM PM PM PM PM  
  E  S  S  E  S  S  E  S  S  E  S  S     E  S  S  E  S  S  E  S  S  E  S  S   
--------------------------------------|--------------------------------------|
--------------------------------------|--------------------------------------|
--------------------------------------|--------------------------------------|
--5-----------------------------------|--7-----------------------------------|
--3-----------------------------------|--5-----------------------------------|
-----0--0--0--0--0--0--0--0--0--0--0--|--0--0--0--0--0--0--0--0--0--0--0--0--|


       PM PM PM PM      PM PM PM PM         PM PM PM PM PM PM PM PM PM  
  Q    S  S  S  S  Q    S  S  S  S     Q    E  S  S  E  S  S  E  S  S   
------------------------------------|----------------------------------|
------------------------------------|----------------------------------|
------------------------------------|----------------------------------|
--3----------------2----------------|--7-------------------------------|
--5----------------3----------------|--5-------------------------------|
-------0--0--0--0-------0--0--0--0--|--0----0--0--0--0--0--0--0--0--0--|


     PM PM PM PM PM PM PM PM PM PM PM       PM PM PM PM PM PM PM PM PM PM PM  
  E  S  S  E  S  S  E  S  S  E  S  S     E  S  S  E  S  S  E  S  S  E  S  S   
--------------------------------------|--------------------------------------|
--------------------------------------|--------------------------------------|
--------------------------------------|--------------------------------------|
--5-----------------------------------|--7-----------------------------------|
--3-----------------------------------|--5-----------------------------------|
-----0--0--0--0--0--0--0--0--0--0--0--|--0--0--0--0--0--0--0--0--0--0--0--0--|


                                         Puente                           
       PM PM PM PM      PM PM PM PM           PM PM PM PM PM PM           
  Q    S  S  S  S  Q    S  S  S  S       Q    E  S  S  E  S  S    E   E   
------------------------------------|------------------------------------|
------------------------------------|------------------------------------|
------------------------------------|------------------------------------|
--3----------------2----------------|------------------------------------|
--5----------------3----------------|--/12----------------------/10--12--|
-------0--0--0--0-------0--0--0--0--|---------0--0--0--0--0--0-----------|


         PM PM PM PM PM PM                  PM PM PM PM PM PM           
   Q     E  S  S  E  S  S   E   E     Q     E  S  S  E  S  S    E   E   
-----------------------------------|-----------------------------------|
-----------------------------------|-----------------------------------|
-----------------------------------|-----------------------------------|
-----------------------------------|-----------------------------------|
--10~----------------------/7--12--|--8~----------------------/10--12--|
---------0--0--0--0--0--0----------|--------0--0--0--0--0--0-----------|


                                      Verso B                             
         PM PM PM PM PM PM                    PM PM PM PM PM PM PM PM PM  
   Q     E  S  S  E  S  S  S S S S    Q       E  S  S  E  S  S  E  S  S   
-----------------------------------|-------------------------------------|
-----------------------------------|-------------------------------------|
-----------------------------------|-------------------------------------|
--10~----------------------------3-|--7----------------------------------|
--10~----------------------5-3-5---|--5----------------------------------|
---------0--0--0--0--0--0----------|--0-------0--0--0--0--0--0--0--0--0--|


     PM PM PM PM PM PM PM PM PM PM PM       PM PM PM PM PM PM PM PM PM PM PM  
  E  S  S  E  S  S  E  S  S  E  S  S     E  S  S  E  S  S  E  S  S  E  S  S   
--------------------------------------|--------------------------------------|
--------------------------------------|--------------------------------------|
--------------------------------------|--------------------------------------|
--5-----------------------------------|--7-----------------------------------|
--3-----------------------------------|--5-----------------------------------|
-----0--0--0--0--0--0--0--0--0--0--0--|--0--0--0--0--0--0--0--0--0--0--0--0--|


       PM PM PM PM      PM PM PM PM         PM PM PM PM PM PM PM PM PM  
  Q    S  S  S  S  Q    S  S  S  S     Q    E  S  S  E  S  S  E  S  S   
------------------------------------|----------------------------------|
------------------------------------|----------------------------------|
------------------------------------|----------------------------------|
--3----------------2----------------|--7-------------------------------|
--5----------------3----------------|--5-------------------------------|
-------0--0--0--0-------0--0--0--0--|--0----0--0--0--0--0--0--0--0--0--|


     PM PM PM PM PM PM PM PM PM PM PM       PM PM PM PM PM PM PM PM PM PM PM  
  E  S  S  E  S  S  E  S  S  E  S  S     E  S  S  E  S  S  E  S  S  E  S  S   
--------------------------------------|--------------------------------------|
--------------------------------------|--------------------------------------|
--------------------------------------|--------------------------------------|
--5-----------------------------------|--7-----------------------------------|
--3-----------------------------------|--5-----------------------------------|
-----0--0--0--0--0--0--0--0--0--0--0--|--0--0--0--0--0--0--0--0--0--0--0--0--|


                                       Pre-Coro                               
       PM PM PM PM      PM PM PM PM             PM PM PM PM      PM PM PM PM  
  Q    S  S  S  S  Q    S  S  S  S     Q        S  S  S  S  Q    S  S  S  S   
------------------------------------|----------------------------------------|
------------------------------------|----------------------------------------|
------------------------------------|--3--------------------3----------------|
--3----------------2----------------|--3--------------------3----------------|
--5----------------3----------------|--1--------1--1--1--1--1----1--1--1--1--|
-------0--0--0--0-------0--0--0--0--|----------------------------------------|


       PM PM PM PM      PM PM PM PM         PM PM PM PM      PM PM PM PM  
  Q    S  S  S  S  Q    S  S  S  S     Q    S  S  S  S  Q    S  S  S  S   
------------------------------------|------------------------------------|
------------------------------------|------------------------------------|
--3----------------3----------------|--2----------------2----------------|
--3----------------3----------------|--2----------------2----------------|
--1----1--1--1--1--1----1--1--1--1--|--0----0--0--0--0--0----0--0--0--0--|
------------------------------------|------------------------------------|


       PM PM PM PM      PM PM PM PM                                
  Q    S  S  S  S  Q    S  S  S  S     Q    E    Q    E  E     E   
------------------------------------|-----------------------------|
------------------------------------|-----------------------------|
--2----------------2----------------|--7----7--7g9----9--9--9g10--|
--2----------------2----------------|--x----x----x----x--x-----x--|
--0----0--0--0--0--0----0--0--0--0--|--5----5--5g7----7--7---7g8--|
------------------------------------|-----------------------------|


   E   E   E      Q     E   Q           W                 
---------------------------------|-----------------------|
---------------------------------|-----------------------|
---L--10--10--10g12----12--12----|--12g14----------------|
---L---x---x------x-----x---x----|------x----------------|
---L---8---8---8g10----10--10----|--10g12----------------|
---------------------------------|-----------------------|


                         Coro                                        
  H.            Q        Q.     Q    Q    E     Q.     Q    Q    E   
----------------------|----------------------|----------------------|
----------------------|----------------------|----------------------|
--9-------------------|----------------------|--5------L------------|
--x------------12\----|--7------L------------|--5------L----7----8--|
--7------------12\----|--5------L----7----8--|----------------------|
----------------------|----------------------|----------------------|


  Q.     E   S S Q    S S    W                   Q.     Q    Q    E   
--------------------------|-------------------|----------------------|
--------------------------|-------------------|----------------------|
--------------------------|-------------------|----------------------|
--7-------------------7-7-|--7----------------|--7------L------------|
--8------3s--5---5----5-5-|--5----------------|--5------L----7----8--|
---------3s--5---5--------|--0----------------|----------------------|


  Q.     Q    Q    E     Q.     E   S S Q    S S    W                 
----------------------|--------------------------|-------------------|
----------------------|--------------------------|-------------------|
--5------L------------|--------------------------|-------------------|
--5------L----7----8--|--7-------------------7-7-|--7----------------|
----------------------|--8------3s--5---5----5-5-|--5----------------|
----------------------|---------3s--5---5--------|--0----------------|


  Q.     Q    Q    E     Q.     Q    Q    E     Q.     E   S S Q    S S  
----------------------|----------------------|--------------------------|
----------------------|----------------------|--------------------------|
----------------------|--5------L------------|--------------------------|
--7------L------------|--5------L----7----8--|--7-------------------7-7-|
--5------L----7----8--|----------------------|--8------3s--5---5----5-5-|
----------------------|----------------------|---------3s--5---5--------|


  W                   Q.     Q    Q    E     Q.     Q    Q    E   
-------------------|----------------------|----------------------|
-------------------|----------------------|----------------------|
-------------------|----------------------|--5------L------------|
--7----------------|--7------L------------|--5------L----7----8--|
--5----------------|--5------L----7----8--|----------------------|
--0----------------|----------------------|----------------------|


  Q.     E   S S Q    S S    W                 
--------------------------|-------------------|
--------------------------|-------------------|
--------------------------|-------------------|
--7-------------------7-7-|--7----------------|
--8------3s--5---5----5-5-|--5----------------|
---------3s--5---5--------|--0----------------|


  Riff A                                                                 
         PM PM PM       PM PM PM PM PM                   PM PM PM PM PM  
  E      S  S  E  Q     S  S  E  S  S     Q    E  E   E  S  S  E  S  S   
---------------------------------------|--------------------------------|
---------------------------------------|--------------------------------|
---------------------------------------|--------------------------------|
--7---------------7~-------------------|--------------------------------|
--8------8--8--8--5~----5--5--8--8--8--|--7----5--3~--L-----------------|
---------------------------------------|-----------------0--0--0--0--0--|


     PM PM PM       PM PM PM PM PM                   PM PM PM PM PM  
  E  S  S  E  Q     S  S  E  S  S     Q    E  E   E  S  S  E  S  S   
-----------------------------------|--------------------------------|
-----------------------------------|--------------------------------|
-----------------------------------|--------------------------------|
--7-----------7~-------------------|--------------------------------|
--8--8--8--8--5~----5--5--8--8--8--|--7----5--3~--L-----------------|
-----------------------------------|-----------------0--0--0--0--0--|


  Verso A                                                                    
          PM PM PM PM PM PM PM PM PM       PM PM PM PM PM PM PM PM PM PM PM  
  Q       E  S  S  E  S  S  E  S  S     E  S  S  E  S  S  E  S  S  E  S  S   
-------------------------------------|--------------------------------------|
-------------------------------------|--------------------------------------|
-------------------------------------|--------------------------------------|
--7----------------------------------|--5-----------------------------------|
--5----------------------------------|--3-----------------------------------|
--0-------0--0--0--0--0--0--0--0--0--|-----0--0--0--0--0--0--0--0--0--0--0--|


     PM PM PM PM PM PM PM PM PM PM PM         PM PM PM PM      PM PM PM PM  
  E  S  S  E  S  S  E  S  S  E  S  S     Q    S  S  S  S  Q    S  S  S  S   
--------------------------------------|------------------------------------|
--------------------------------------|------------------------------------|
--------------------------------------|------------------------------------|
--7-----------------------------------|--3----------------2----------------|
--5-----------------------------------|--5----------------3----------------|
--0--0--0--0--0--0--0--0--0--0--0--0--|-------0--0--0--0-------0--0--0--0--|


       PM PM PM PM PM PM PM PM PM       PM PM PM PM PM PM PM PM PM PM PM  
  Q    E  S  S  E  S  S  E  S  S     E  S  S  E  S  S  E  S  S  E  S  S   
----------------------------------|--------------------------------------|
----------------------------------|--------------------------------------|
----------------------------------|--------------------------------------|
--7-------------------------------|--5-----------------------------------|
--5-------------------------------|--3-----------------------------------|
--0----0--0--0--0--0--0--0--0--0--|-----0--0--0--0--0--0--0--0--0--0--0--|


     PM PM PM PM PM PM PM PM PM PM PM         PM PM PM PM      PM PM PM PM  
  E  S  S  E  S  S  E  S  S  E  S  S     Q    S  S  S  S  Q    S  S  S  S   
--------------------------------------|------------------------------------|
--------------------------------------|------------------------------------|
--------------------------------------|------------------------------------|
--7-----------------------------------|--3----------------2----------------|
--5-----------------------------------|--5----------------3----------------|
--0--0--0--0--0--0--0--0--0--0--0--0--|-------0--0--0--0-------0--0--0--0--|


    Puente                                                               
         PM PM PM PM PM PM                    PM PM PM PM PM PM          
    Q    E  S  S  E  S  S    E   E      Q     E  S  S  E  S  S   E   E   
------------------------------------|-----------------------------------|
------------------------------------|-----------------------------------|
------------------------------------|-----------------------------------|
------------------------------------|-----------------------------------|
--/12----------------------/10--12--|--10~----------------------/7--12--|
---------0--0--0--0--0--0-----------|---------0--0--0--0--0--0----------|


        PM PM PM PM PM PM                    PM PM PM PM PM PM          
  Q     E  S  S  E  S  S    E   E      Q     E  S  S  E  S  S  S S S S  
-----------------------------------|-----------------------------------|
-----------------------------------|-----------------------------------|
-----------------------------------|-----------------------------------|
-----------------------------------|--10~----------------------------3-|
--8~----------------------/10--12--|--10~----------------------5-3-5---|
--------0--0--0--0--0--0-----------|---------0--0--0--0--0--0----------|


  Verso B                                                                    
          PM PM PM PM PM PM PM PM PM       PM PM PM PM PM PM PM PM PM PM PM  
  Q       E  S  S  E  S  S  E  S  S     E  S  S  E  S  S  E  S  S  E  S  S   
-------------------------------------|--------------------------------------|
-------------------------------------|--------------------------------------|
-------------------------------------|--------------------------------------|
--7----------------------------------|--5-----------------------------------|
--5----------------------------------|--3-----------------------------------|
--0-------0--0--0--0--0--0--0--0--0--|-----0--0--0--0--0--0--0--0--0--0--0--|


     PM PM PM PM PM PM PM PM PM PM PM         PM PM PM PM      PM PM PM PM  
  E  S  S  E  S  S  E  S  S  E  S  S     Q    S  S  S  S  Q    S  S  S  S   
--------------------------------------|------------------------------------|
--------------------------------------|------------------------------------|
--------------------------------------|------------------------------------|
--7-----------------------------------|--3----------------2----------------|
--5-----------------------------------|--5----------------3----------------|
--0--0--0--0--0--0--0--0--0--0--0--0--|-------0--0--0--0-------0--0--0--0--|


       PM PM PM PM PM PM PM PM PM       PM PM PM PM PM PM PM PM PM PM PM  
  Q    E  S  S  E  S  S  E  S  S     E  S  S  E  S  S  E  S  S  E  S  S   
----------------------------------|--------------------------------------|
----------------------------------|--------------------------------------|
----------------------------------|--------------------------------------|
--7-------------------------------|--5-----------------------------------|
--5-------------------------------|--3-----------------------------------|
--0----0--0--0--0--0--0--0--0--0--|-----0--0--0--0--0--0--0--0--0--0--0--|


     PM PM PM PM PM PM PM PM PM PM PM         PM PM PM PM      PM PM PM PM  
  E  S  S  E  S  S  E  S  S  E  S  S     Q    S  S  S  S  Q    S  S  S  S   
--------------------------------------|------------------------------------|
--------------------------------------|------------------------------------|
--------------------------------------|------------------------------------|
--7-----------------------------------|--3----------------2----------------|
--5-----------------------------------|--5----------------3----------------|
--0--0--0--0--0--0--0--0--0--0--0--0--|-------0--0--0--0-------0--0--0--0--|


  Pre-Coro                                                                    
           PM PM PM PM      PM PM PM PM         PM PM PM PM      PM PM PM PM  
  Q        S  S  S  S  Q    S  S  S  S     Q    S  S  S  S  Q    S  S  S  S   
----------------------------------------|------------------------------------|
----------------------------------------|------------------------------------|
--3--------------------3----------------|--3----------------3----------------|
--3--------------------3----------------|--3----------------3----------------|
--1--------1--1--1--1--1----1--1--1--1--|--1----1--1--1--1--1----1--1--1--1--|
----------------------------------------|------------------------------------|


       PM PM PM PM      PM PM PM PM         PM PM PM PM      PM PM PM PM  
  Q    S  S  S  S  Q    S  S  S  S     Q    S  S  S  S  Q    S  S  S  S   
------------------------------------|------------------------------------|
------------------------------------|------------------------------------|
--2----------------2----------------|--2----------------2----------------|
--2----------------2----------------|--2----------------2----------------|
--0----0--0--0--0--0----0--0--0--0--|--0----0--0--0--0--0----0--0--0--0--|
------------------------------------|------------------------------------|


  Q    E    Q    E  E     E      E   E   E      Q     E   Q     
-----------------------------|---------------------------------|
-----------------------------|---------------------------------|
--7----7--7g9----9--9--9g10--|---L--10--10--10g12----12--12----|
--x----x----x----x--x-----x--|---L---x---x------x-----x---x----|
--5----5--5g7----7--7---7g8--|---L---8---8---8g10----10--10----|
-----------------------------|---------------------------------|


                                                 Coro                 
      W                   H.            Q        Q.     Q    Q    E   
-----------------------|----------------------|----------------------|
-----------------------|----------------------|----------------------|
--12g14----------------|--9-------------------|----------------------|
------x----------------|--x------------12\----|--7------L------------|
--10g12----------------|--7------------12\----|--5------L----7----8--|
-----------------------|----------------------|----------------------|


  Q.     Q    Q    E     Q.     E   S S Q    S S    W                 
----------------------|--------------------------|-------------------|
----------------------|--------------------------|-------------------|
--5------L------------|--------------------------|-------------------|
--5------L----7----8--|--7-------------------7-7-|--7----------------|
----------------------|--8------3s--5---5----5-5-|--5----------------|
----------------------|---------3s--5---5--------|--0----------------|


  Q.     Q    Q    E     Q.     Q    Q    E     Q.     E   S S Q    S S  
----------------------|----------------------|--------------------------|
----------------------|----------------------|--------------------------|
----------------------|--5------L------------|--------------------------|
--7------L------------|--5------L----7----8--|--7-------------------7-7-|
--5------L----7----8--|----------------------|--8------3s--5---5----5-5-|
----------------------|----------------------|---------3s--5---5--------|


  W                   Q.     Q    Q    E     Q.     Q    Q    E   
-------------------|----------------------|----------------------|
-------------------|----------------------|----------------------|
-------------------|----------------------|--5------L------------|
--7----------------|--7------L------------|--5------L----7----8--|
--5----------------|--5------L----7----8--|----------------------|
--0----------------|----------------------|----------------------|


  Q.     E   S S Q    S S    W                   Q.     Q    Q    E   
--------------------------|-------------------|----------------------|
--------------------------|-------------------|----------------------|
--------------------------|-------------------|----------------------|
--7-------------------7-7-|--7----------------|--7------L------------|
--8------3s--5---5----5-5-|--5----------------|--5------L----7----8--|
---------3s--5---5--------|--0----------------|----------------------|


  Q.     Q    Q    E     Q.     E   S S Q    E     W                 
----------------------|-------------------------|-------------------|
----------------------|-------------------------|-------------------|
--5------L------------|-------------------------|-------------------|
--5------L----7----8--|--7-------------------7--|--7----------------|
----------------------|--8------3s--5---5----5--|--5----------------|
----------------------|---------3s--5---5-------|--0----------------|


  Break                                                                         
  W                   W                   W                   W                 
-------------------|-------------------|-------------------|-------------------|
-------------------|-------------------|-------------------|-------------------|
-------------------|-------------------|-------------------|-------------------|
--L----------------|--L----------------|--L----------------|--L----------------|
--L----------------|--L----------------|--L----------------|--L----------------|
--L----------------|--L----------------|--L----------------|--L----------------|


    Riff B                                                     
                     PM PM PM PM                               
    E.   E.  Q    E  S  S  S  S     E.  E.  E.  S S S S S S S  
---------------------------------|----------------------------|
---------------------------------|----------------------------|
---------------------------------|----------------------------|
-------------7----5--5--5--5--5--|--4---5---------------------|
--5g7----7-----------------------|----------7---7-7-7-7-7-7-7-|
---------------------------------|----------------------------|


                    PM PM PM PM                               
    E.  E.  Q    E  S  S  S  S     E.  E.  E.  S S S S S S S  
--------------------------------|----------------------------|
--------------------------------|----------------------------|
--------------------------------|----------------------------|
------------7----5--5--5--5--5--|--4---5---------------------|
--5g7---7-----------------------|----------7---7-7-7-7-7-7-7-|
--------------------------------|----------------------------|


                    PM PM PM PM                               
    E.  E.  Q    E  S  S  S  S     E.  E.  E.  S S S S S S S  
--------------------------------|----------------------------|
--------------------------------|----------------------------|
--------------------------------|----------------------------|
------------7----5--5--5--5--5--|--4---5---------------------|
--5g7---7-----------------------|----------7---7-7-7-7-7-7-7-|
--------------------------------|----------------------------|


                    PM PM PM PM                         
    E.  E.  Q    E  S  S  S  S     E.  E.  E  H         
--------------------------------|----------------------|
--------------------------------|----------------------|
--------------------------------|----------------------|
------------7----5--5--5--5--5--|--4---5---------------|
--5g7---7-----------------------|----------2--L--------|
--------------------------------|----------2--L--------|


   Interludio 1                                                   
   E.          E.  E  E.  E.  E       E.   E.  E  E.  E.  S   S   
---------------------------------|-------------------------------|
---------------------------------|-------------------------------|
---------------------------------|-------------7--9---9---9h-10h-|
-------------------5--7---7---8--|--/10---10---------------------|
--/8-----------8-----------------|-------------------------------|
---------------------------------|-------------------------------|


  E   S E.   H        S   S     E   S S  H.            
-----------------------------|------------------------|
-----------------------------|------------------------|
--9--10-9~---L--------9h-10h-|--9--10-9~-L------------|
-----------------------------|------------------------|
-----------------------------|------------------------|
-----------------------------|------------------------|


    Riff B                                                     
                     PM PM PM PM                               
    E.   E.  Q    E  S  S  S  S     E.  E.  E.  S S S S S S S  
---------------------------------|----------------------------|
---------------------------------|----------------------------|
---------------------------------|----------------------------|
-------------7----5--5--5--5--5--|--4---5---------------------|
--5g7----7-----------------------|----------7---7-7-7-7-7-7-7-|
---------------------------------|----------------------------|


                    PM PM PM PM                               
    E.  E.  Q    E  S  S  S  S     E.  E.  E.  S S S S S S S  
--------------------------------|----------------------------|
--------------------------------|----------------------------|
--------------------------------|----------------------------|
------------7----5--5--5--5--5--|--4---5---------------------|
--5g7---7-----------------------|----------7---7-7-7-7-7-7-7-|
--------------------------------|----------------------------|


   Interludio 1                                                   
   E.          E.  E  E.  E.  E       E.   E.  E  E.  E.  S   S   
---------------------------------|-------------------------------|
---------------------------------|-------------------------------|
---------------------------------|-------------7--9---9---9h-10h-|
-------------------5--7---7---8--|--/10---10---------------------|
--/8-----------8-----------------|-------------------------------|
---------------------------------|-------------------------------|


  E   S E.   H        S   S     E   S S  H.            
-----------------------------|------------------------|
-----------------------------|------------------------|
--9--10-9~---L--------9h-10h-|--9--10-9~-L------------|
-----------------------------|------------------------|
-----------------------------|------------------------|
-----------------------------|------------------------|


  Interludio 2a                                               
                           PM PM                       PM PM  
  Q.            Q.      E  S  S     Q    E  E   Q.     S  S   
---------------------------------|---------------------------|
---------------------------------|---------------------------|
---------------------------------|---------------------------|
---------------------------------|---------------------------|
--8-------------5~------8--8--8--|--7----5--3~--L------------|
---------------------------------|---------------------0--0--|


                    PM PM                       PM PM  
  Q.     Q.      E  S  S     Q    E  E   Q.     S  S   
--------------------------|---------------------------|
--------------------------|---------------------------|
--------------------------|---------------------------|
--------------------------|---------------------------|
--8------5~------8--8--8--|--7----5--3~--L------------|
--------------------------|---------------------0--0--|


  Interludio 2b                                               
                           PM PM                       PM PM  
  Q.            Q.      E  S  S     Q    E  E   Q.     S  S   
---------------------------------|---------------------------|
---------------------------------|---------------------------|
---------------------------------|---------------------------|
---------------------------------|---------------------------|
--8-------------5~------8--8--8--|--7----5--3~--L------------|
---------------------------------|---------------------0--0--|


  Q.     Q.      Q       Q    E    E   Q.      S  S  
----------------------|-----------------------17-15-|
----------------------|-----------------------------|
--7--------------7----|--5----7--7g9~--L------------|
---------7~-----------|-----------------------------|
----------------------|-----------------------------|
----------------------|-----------------------------|


   Puente                                                              
   Q.       S  S  E   E    E   E      S  S  Q.       S  S  Q     S  S  
--17~------17-15-17--18--/20--18--|--17-15-17~-------L--L\------17-15-|
----------------------------------|-----------------------------------|
----------------------------------|-----------------------------------|
----------------------------------|-----------------------------------|
----------------------------------|-----------------------------------|
----------------------------------|-----------------------------------|


   Q.       S  S  Q.       S  S     Q.       S  S  H          
--17~------15-13-15~------13-12-|--13~------12-10-12~--------|
--------------------------------|----------------------------|
--------------------------------|----------------------------|
--------------------------------|----------------------------|
--------------------------------|----------------------------|
--------------------------------|----------------------------|


  Coro                                                                   
  Q.     Q    Q    E     Q.     Q    Q    E     Q.     E   S S Q    S S  
----------------------|----------------------|--------------------------|
----------------------|----------------------|--------------------------|
----------------------|--5------L------------|--------------------------|
--7------L------------|--5------L----7----8--|--7-------------------7-7-|
--5------L----7----8--|----------------------|--8------3s--5---5----5-5-|
----------------------|----------------------|---------3s--5---5--------|


  Solo Adrian Smith                                                
  W                    Q.     Q    Q    E     Q.     Q    Q    E   
--------------------|----------------------|----------------------|
--------------------|----------------------|----------------------|
--------------------|----------------------|--5------L------------|
--7-----------------|--7------L------------|--5------L----7----8--|
--5-----------------|--5------L----7----8--|----------------------|
--0-----------------|----------------------|----------------------|


  Q.     E   S S Q    S S    W                   Q.     Q    Q    E   
--------------------------|-------------------|----------------------|
--------------------------|-------------------|----------------------|
--------------------------|-------------------|----------------------|
--7-------------------7-7-|--7----------------|--7------L------------|
--8------3s--5---5----5-5-|--5----------------|--5------L----7----8--|
---------3s--5---5--------|--0----------------|----------------------|


  Q.     Q    Q    E     Q.     E   S S Q    S S    W                 
----------------------|--------------------------|-------------------|
----------------------|--------------------------|-------------------|
--5------L------------|--------------------------|-------------------|
--5------L----7----8--|--7-------------------7-7-|--7----------------|
----------------------|--8------3s--5---5----5-5-|--5----------------|
----------------------|---------3s--5---5--------|--0----------------|


  Q.     Q    Q    E     Q.     Q    Q    E     Q.     E   S S Q    S S  
----------------------|----------------------|--------------------------|
----------------------|----------------------|--------------------------|
----------------------|--5------L------------|--------------------------|
--7------L------------|--5------L----7----8--|--7-------------------7-7-|
--5------L----7----8--|----------------------|--8------3s--5---5----5-5-|
----------------------|----------------------|---------3s--5---5--------|


                      Outro Coro                                      
  W                   Q.         Q    Q    E     Q.     Q    Q    E   
-------------------|--------------------------|----------------------|
-------------------|--------------------------|----------------------|
-------------------|--------------------------|--5------L------------|
--7----------------|--7----------L------------|--5------L----7----8--|
--5----------------|--5----------L----7----8--|----------------------|
--0----------------|--------------------------|----------------------|


  Q.     E   S S Q    S S    W                   Q.     Q    Q    E   
--------------------------|-------------------|----------------------|
--------------------------|-------------------|----------------------|
--------------------------|-------------------|----------------------|
--7-------------------7-7-|--7----------------|--7------L------------|
--8------3s--5---5----5-5-|--5----------------|--5------L----7----8--|
---------3s--5---5--------|--0----------------|----------------------|


  Q.     Q    Q    E     Q.     E   S S Q    S S    W                 
----------------------|--------------------------|-------------------|
----------------------|--------------------------|-------------------|
--5------L------------|--------------------------|-------------------|
--5------L----7----8--|--7-------------------7-7-|--7----------------|
----------------------|--8------3s--5---5----5-5-|--5----------------|
----------------------|---------3s--5---5--------|--0----------------|


  Q.     Q    Q    E     Q.     Q    Q    E     Q.     E   S S Q    S S  
----------------------|----------------------|--------------------------|
----------------------|----------------------|--------------------------|
----------------------|--5------L------------|--------------------------|
--7------L------------|--5------L----7----8--|--7-------------------7-7-|
--5------L----7----8--|----------------------|--8------3s--5---5----5-5-|
----------------------|----------------------|---------3s--5---5--------|


  W                   Q.     Q    Q    E     Q.     Q    Q    E   
-------------------|----------------------|----------------------|
-------------------|----------------------|----------------------|
-------------------|----------------------|--5------L------------|
--7----------------|--7------L------------|--5------L----7----8--|
--5----------------|--5------L----7----8--|----------------------|
--0----------------|----------------------|----------------------|


                            Outro                       
  Q.     E   S S Q    E     E     E  E  E  E  E  E  E   
-------------------------|-----------------------------|
-------------------------|-----------3--------3--------|
-------------------------|--------2--------2--------2--|
--7-------------------7--|--0-----------0--------0-----|
--8------3s--5---5----5--|-----------------------------|
---------3s--5---5-------|-----------------------------|


  E  E  E  E  E  E  E  E     E  E  E  E  E  E  E  E   
--------0-----------------|--------------------------|
--3--------3-----3--L-----|-----3--------3-----------|
-----------------2--L-----|--2--------2--------2--3--|
-----0--------0--------0--|--------0--------0--------|
--------------------------|--------------------------|
--------------------------|--------------------------|


  E  E  E  E  E  E  E  E     E  E  E  E   E  E  E  E   
-----------------0--------|--0------------------------|
--------3-----------3-----|-----3------------3--------|
--2--------2-----------2--|--------2--2s--3-----3--0--|
-----0--------0-----------|---------------------------|
--------------------------|---------------------------|
--------------------------|---------------------------|


                            Acoustic Outro                            
                                                       |--3--|        
  Q    E  E  E  E  E  E     E              E  E  E  E  S  S  S E  E   
-------------------------|-----------------0-------------------------|
----------3--------3-----|--------------------3-----3----------------|
--2----------2--------2--|-----------------------2-----2h-3p-2-0--2--|
-------0--------0--------|--0----------------------------------------|
-------------------------|-------------------------------------------|
-------------------------|-------------------------------------------|


  W                   W                   W                   W                 
-------------------|-------------------|-------------------|-------------------|
-------------------|-------------------|-------------------|-------------------|
--L----------------|--L----------------|-------------------|-------------------|
-------------------|-------------------|-------------------|-------------------|
-------------------|-------------------|-------------------|-------------------|
-------------------|-------------------|-------------------|-------------------|


  W                  
-------------------||
-------------------||
-------------------||
-------------------||
-------------------||
-------------------||




Guitar #4:
                            
Janick Gers

                              Riff A                                   
                                     PM PM PM PM PM PM PM PM PM PM PM  
     S    W                   E      S  S  E  S  S  E  S  S  E  S  S   
E||----|-------------------|------------------------------------------|
B||----|-------------------|------------------------------------------|
G||----|-------------------|------------------------------------------|
D||----|-------------------|--7---------------------------------------|
A||----|-------------------|--5---------------------------------------|
D||----|-------------------|--0------0--0--0--0--0--0--0--0--0--0--0--|


  PM PM PM PM PM PM PM PM PM PM PM PM    PM PM PM PM PM PM PM PM PM PM PM PM  
  E  S  S  E  S  S  E  S  S  E  S  S     E  S  S  E  S  S  E  S  S  E  S  S   
--------------------------------------|--------------------------------------|
--------------------------------------|--------------------------------------|
--------------------------------------|--------------------------------------|
--------------------------------------|--------------------------------------|
--------------------------------------|--------------------------------------|
--0--0--0--0--0--0--0--0--0--0--0--0--|--0--0--0--0--0--0--0--0--0--0--0--0--|


  PM PM PM PM PM PM PM PM PM PM PM PM    PM PM PM PM PM PM PM PM PM PM PM PM  
  E  S  S  E  S  S  E  S  S  E  S  S     E  S  S  E  S  S  E  S  S  E  S  S   
--------------------------------------|--------------------------------------|
--------------------------------------|--------------------------------------|
--------------------------------------|--------------------------------------|
--------------------------------------|--------------------------------------|
--------------------------------------|--------------------------------------|
--0--0--0--0--0--0--0--0--0--0--0--0--|--0--0--0--0--0--0--0--0--0--0--0--0--|


  PM PM PM PM PM PM PM PM PM PM PM PM    PM PM PM PM PM PM PM PM PM PM PM PM  
  E  S  S  E  S  S  E  S  S  E  S  S     E  S  S  E  S  S  E  S  S  E  S  S   
--------------------------------------|--------------------------------------|
--------------------------------------|--------------------------------------|
--------------------------------------|--------------------------------------|
--------------------------------------|--------------------------------------|
--------------------------------------|--------------------------------------|
--0--0--0--0--0--0--0--0--0--0--0--0--|--0--0--0--0--0--0--0--0--0--0--0--0--|


                                         Verso A                               
  PM PM PM PM PM PM PM PM PM PM PM PM                                          
  E  S  S  E  S  S  E  S  S  E  S  S     W                   W                 
--------------------------------------|-------------------|-------------------|
--------------------------------------|-------------------|-------------------|
--------------------------------------|-------------------|-------------------|
--------------------------------------|-------------------|-------------------|
--------------------------------------|-------------------|-------------------|
--0--0--0--0--0--0--0--0--0--0--0--0--|-------------------|-------------------|


                            PM PM PM PM       PM PM PM PM                      
  W                    Q    S  S  S  S   Q    S  S  S  S     W                 
-------------------|--------------------------------------|-------------------|
-------------------|--------------------------------------|-------------------|
-------------------|--------------------------------------|-------------------|
-------------------|--10----------------10----------------|-------------------|
-------------------|---8-----------------7----------------|-------------------|
-------------------|--------0--0--0--0--------0--0--0--0--|-------------------|


                                                PM PM PM PM       PM PM PM PM  
  W                   W                    Q    S  S  S  S   Q    S  S  S  S   
-------------------|-------------------|--------------------------------------|
-------------------|-------------------|--------------------------------------|
-------------------|-------------------|--------------------------------------|
-------------------|-------------------|--10----------------10----------------|
-------------------|-------------------|---8-----------------7----------------|
-------------------|-------------------|--------0--0--0--0--------0--0--0--0--|


  W                   W                   W                   W                 
-------------------|-------------------|-------------------|-------------------|
-------------------|-------------------|-------------------|-------------------|
-------------------|-------------------|-------------------|-------------------|
-------------------|-------------------|-------------------|-------------------|
-------------------|-------------------|-------------------|-------------------|
-------------------|-------------------|-------------------|-------------------|


  W                   W                   W                 
-------------------|-------------------|-------------------|
-------------------|-------------------|-------------------|
-------------------|-------------------|-------------------|
-------------------|-------------------|-------------------|
-------------------|-------------------|-------------------|
-------------------|-------------------|-------------------|


        PM PM PM PM       PM PM PM PM                                          
   Q    S  S  S  S   Q    S  S  S  S     W                   W                 
--------------------------------------|-------------------|-------------------|
--------------------------------------|-------------------|-------------------|
--------------------------------------|-------------------|-------------------|
--10----------------10----------------|-------------------|-------------------|
---8-----------------7----------------|-------------------|-------------------|
--------0--0--0--0--------0--0--0--0--|-------------------|-------------------|


                                                             Pre-Coro          
                            PM PM PM PM       PM PM PM PM                      
  W                    Q    S  S  S  S   Q    S  S  S  S     W                 
-------------------|--------------------------------------|-------------------|
-------------------|--------------------------------------|-------------------|
-------------------|--------------------------------------|-------------------|
-------------------|--10----------------10----------------|-------------------|
-------------------|---8-----------------7----------------|--8----------------|
-------------------|--------0--0--0--0--------0--0--0--0--|--8----------------|


  W                   W                   W                 
-------------------|-------------------|-------------------|
-------------------|-------------------|-------------------|
-------------------|-------------------|-------------------|
-------------------|-------------------|-------------------|
--L----------------|--7----------------|--L----------------|
--L----------------|--7----------------|--L----------------|


  H         H            H         H             W                 
----------------------|----------------------|--------------------|
----------------------|----------------------|--------------------|
--3---------5---------|--7---------9---------|--10----------------|
--x---------x---------|--x---------x---------|---x----------------|
--1~--------3~--------|--5~--------7~--------|---8----------------|
----------------------|----------------------|--------------------|


               PM PM                                                
  H.           E  E           W                   W                 
---------------------|-----|-------------------|-------------------|
---------------------|-----|-------------------|-------------------|
--2------------------|-----|-------------------|-------------------|
--2------------------|-----|-------------------|-------------------|
--0------------------|-----|-------------------|-------------------|
---------------3--2--|-----|-------------------|-------------------|


                      Solo Adrian Smith                        
  W                   E                 S S Q     S S Q.       
-------------------|------------------------------------------|
-------------------|------------------------------------------|
-------------------|----------------------5-7~------5-7~------|
-------------------|--------------------7---------7-----------|
-------------------|------------------------------------------|
-------------------|------------------------------------------|


  W                   W                   H        E   Q      S   S  
-------------------|-------------------|----------------------------|
-------------------|-------------------|--------------15~-----Ls-13-|
--L----------------|-------------------|----------------------------|
-------------------|-------------------|----------------------------|
-------------------|-------------------|----------------------------|
-------------------|-------------------|----------------------------|


   H         H           W                   W                 
----------------------|-------------------|-------------------|
--15~-----------------|-------------------|-------------------|
----------------------|-------------------|-------------------|
----------------------|-------------------|-------------------|
----------------------|-------------------|-------------------|
----------------------|-------------------|-------------------|


  H.           E  S S    E  S S S S S S S S Q.         H        H         
----------------------|-----------------------------|--------------------|
----------------------|--6--6-----------------------|--------------------|
------------------5---|--7----7-5-------------------|--------------------|
--------------------7-|-----------7-5---------------|--------------------|
----------------------|---------------8-8-5-5~------|--L-----------------|
----------------------|-----------------------------|--------------------|


  W                   W                   W                   W                 
-------------------|-------------------|-------------------|-------------------|
-------------------|-------------------|-------------------|-------------------|
-------------------|-------------------|-------------------|-------------------|
-------------------|-------------------|-------------------|-------------------|
-------------------|-------------------|-------------------|-------------------|
-------------------|-------------------|-------------------|-------------------|


  W                   W                   H        E  E.  E.   
-------------------|-------------------|----------------------|
-------------------|-------------------|----------------------|
-------------------|-------------------|-----------7--9---7---|
-------------------|-------------------|----------------------|
-------------------|-------------------|----------------------|
-------------------|-------------------|----------------------|


  H         E  E   E   E      E    S  S  H          E   E   
--------------------------|--------------------------------|
--------------------------|------------------------10--11--|
--7~--------9--7--10--12--|--12b--12-10-12~----------------|
--------------------------|--------------------------------|
--------------------------|--------------------------------|
--------------------------|--------------------------------|


   S  S  S  S  H.              S  S  S  S  S  S  S  S  S  S  S  S  Q      
----------------------------|----10--------------------------------------|
--13-11-10------------------|-------13-10--------------------------------|
-----------12-10------------|-------------12-10----12-10-----------------|
----------------------------|-------------------12-------12-10----12~----|
----------------------------|----------------------------------12--------|
----------------------------|--------------------------------------------|


                                             |---3---|        
   E   E  H.               E   E   E   Q     S   S   S  Q     
-----------------------|-------------------------------------|
-----------------------|-------------------------------------|
-----------------------|--10----------------10h-12p-10-------|
---L\------------------|--10--12--10--12---------------12----|
-----------------------|------12---8--10----12p-10p--8-10----|
-----------------------|-------------------------------------|


   W                   Q.     E  E.  E.  E     Q    E  E  Q     E   E   
--------------------|-----------------------|--------------------------|
--------------------|--------------------6--|--8----6--8--L----10--11--|
--------------------|----------------7------|--------------------------|
---L----------------|------------7----------|--------------------------|
---L----------------|---------5-------------|--------------------------|
--------------------|-----------------------|--------------------------|


                                                    Outro             
   E.     S  H.                Q    H.              W                 
---------------------------|---------------------|-------------------||
--11br---10----------------|---------------------|-------------------||
------------12~------------|---L-----------------|-------------------||
---------------------------|---------------------|--7----------------||
---------------------------|---------------------|--5----------------||
---------------------------|---------------------|--0----------------||




Voice Melody:
                           
Bruce Dickinson


     S    W                   W                   W                 
E||----|-------------------|-------------------|-------------------|
B||----|-------------------|-------------------|-------------------|
G||----|-------------------|-------------------|-------------------|
D||----|-------------------|-------------------|-------------------|
A||----|-------------------|-------------------|-------------------|
E||----|-------------------|-------------------|-------------------|


                      Verso                                                  
                                Here is   the       soul of  a    man        
  W                   H         E.   E.   E      S  E.   E   E.   E.   Q     
-------------------|-------------------------|------------------------------|
-------------------|-----------15---18---20--|---L-22---20--18---15----L----|
-------------------|-------------------------|------------------------------|
-------------------|-----------12---15---17--|---L-19---17--15---12----L----|
-------------------|-------------------------|------------------------------|
-------------------|-------------------------|------------------------------|


                             Here in   this place    for  the ta   king      
   W                   Q     E.   E.   E.   E.       E.   E   E.   H         
--------------------|----------------------------|--------------------------|
---L----------------|-------15---18---20---22----|--20---18--20---22--------|
--------------------|----------------------------|--------------------------|
---L----------------|-------12---15---17---19----|--17---15--17---19--------|
--------------------|----------------------------|--------------------------|
--------------------|----------------------------|--------------------------|


                  Clo  thed       in  white,              
   Q    H         E.   S       S  E   E.     Q.     Q     
---------------------------|-----------------------------|
---L-------------15---18---|---L-20--22------L-----------|
---------------------------|-----------------------------|
---L-------------12---15---|---L-17--19------L-----------|
---------------------------|-----------------------------|
---------------------------|-----------------------------|


   stand    in the    light                 Here is   the 
   Q     S  S. S   T  H           H         E.   E.   E   
-------------------------------|-------------------------|
--22-----L-20-18---L-20--------|-----------18---17---18--|
-------------------------------|-------------------------|
--19-----L-17-15---L-17--------|-----------15---14---15--|
-------------------------------|-------------------------|
-------------------------------|-------------------------|


   soul       of     a    man                                               
   Q     E.   E   T  E.   T   E.      W                   W                 
----------------------------------|--------------------|-------------------|
--20-----L---18---L-17---15---L---|---L----------------|-------------------|
----------------------------------|--------------------|-------------------|
--17-----L---15---L-14---12---L---|---L----------------|-------------------|
----------------------------------|--------------------|-------------------|
----------------------------------|--------------------|-------------------|


  Verso                                                                   
                  Time    to     speak    with    the    sha   man    a   
  H        E.  T  E    T  E      E     T  E    T  E   T  Q     E   T  E   
-----------------------------|-------------------------------------------|
-----------------18----L-17--|--15-----L-18----L-20---L-22----20---L-18--|
-----------------------------|-------------------------------------------|
-----------------15----L-14--|--12-----L-15----L-17---L-19----17---L-15--|
-----------------------------|-------------------------------------------|
-----------------------------|-------------------------------------------|


   gain                        Con   jure  the   jes 
                               |-----3-----|         
   W                   Q.      Q     Q     Q     E   
--------------------|-------------------------------|
--15----------------|---------15----18----20----22--|
--------------------|-------------------------------|
--12----------------|---------12----15----17----19--|
--------------------|-------------------------------|
--------------------|-------------------------------|


          ter    a    ga    in                          
   E   T  E   T  E.   Q     Q        H        H         
---------------------------------|---------------------|
---L---L-20---L-18---20----22----|---L-----------------|
---------------------------------|---------------------|
---L---L-17---L-15---17----19----|---L-----------------|
---------------------------------|---------------------|
---------------------------------|---------------------|


   Black dog   in   the   ru   ins       is  how  ling my   name      
   3     3          3                                                 
   Q     Q     E.   Q     E.   E      S. E   E.   E.   E.   T    E.   
----------------------------------|----------------------------------|
--15----18----20---18----22---20--|---L-18--22---20---18---15----L---|
----------------------------------|----------------------------------|
--12----15----17---15----19---17--|---L-15--19---17---15---12----L---|
----------------------------------|----------------------------------|
----------------------------------|----------------------------------|


                So     here          is    the soul      of a  man 
   Q.     Q     E   T  E.   T     T  S. T  E   H         S. S. T   
------------------------------|-----------------------------------|
---L-----------15---L-18----L-|---L-17--L-18--20--------18-17-15--|
------------------------------|-----------------------------------|
---L-----------12---L-15----L-|---L-14--L-15--17--------15-14-12--|
------------------------------|-----------------------------------|
------------------------------|-----------------------------------|


   W                    Q    H.              W                 
--------------------|---------------------|-------------------|
---L----------------|---L-----------------|-------------------|
--------------------|---------------------|-------------------|
---L----------------|---L-----------------|-------------------|
--------------------|---------------------|-------------------|
--------------------|---------------------|-------------------|


                      Riff A                                                    
  W                   W                   W                   W                 
-------------------|-------------------|-------------------|-------------------|
-------------------|-------------------|-------------------|-------------------|
-------------------|-------------------|-------------------|-------------------|
-------------------|-------------------|-------------------|-------------------|
-------------------|-------------------|-------------------|-------------------|
-------------------|-------------------|-------------------|-------------------|



                      Verso A                                
                               When    the world was vir gin 
  W                   Q.       T    T  S   E     E   E   E   
-------------------|------------------------------------12--|
-------------------|----------13----L-15--15----15--15--15--|
-------------------|-------------------------------------9--|
-------------------|----------10----L-12--12----12--12--12--|
-------------------|----------------------------------------|
-------------------|----------------------------------------|


          Be fore the co ming of  men             Just a  so  lar wit ness 
  Q    S  S  S    S   S  S    E   Q       Q.      S    S  E   E   E   E    
---------12------------------12--13----|-----------------------------12---|
------------15---15--15-15-------------|---------15---15-15--15--15--15---|
----------9-------------------9--10----|------------------------------9---|
------------12---12--12-12-------------|---------12---12-12--12--12--12---|
---------------------------------------|----------------------------------|
---------------------------------------|----------------------------------|


           The be gin ning of the end             From a  world of  mag ma  
  E  Q     S   S  S   S    S  S   Q       Q.      S    S  E     E   E   E   
----------13--12-13--15---13-15--17----|-----------------------------------|
---------------------------------------|---------13---15-15----15--15--15--|
----------10---9-10--12---10-12--14----|-----------------------------------|
---------------------------------------|---------10---12-12----12--12--12--|
---------------------------------------|-----------------------------------|
---------------------------------------|-----------------------------------|


          To a  cold rock  face           The as cent of  mad ness 
  Q.      S  S  E    Q     E      Q.      S   S  E    E   E   E    
---------------12---13---------|----------------------------------|
---------13-15------------15---|---------15--13-15---13--15--15---|
----------------9---10---------|----------------------------------|
---------10-12------------12---|---------12--10-12---10--12--12---|
-------------------------------|----------------------------------|
-------------------------------|----------------------------------|


                                Puente                                     
          And a  hu  man        ra            aa       aa            aa    
  Q.      S   S  E   Q.         H.            Q        H.            Q     
---------13--12-13--15------|--17------------17----|--15------------15----|
----------------------------|----------------------|----------------------|
---------10---9-10--12------|--14------------14----|--12------------12----|
----------------------------|----------------------|----------------------|
----------------------------|----------------------|----------------------|
----------------------------|----------------------|----------------------|


   aa                             ce        
   W                    H         H         
--13----------------|---L------------------|
--------------------|------------15--------|
--10----------------|---L------------------|
--------------------|------------12--------|
--------------------|----------------------|
--------------------|----------------------|


  Verso B                                                              
           We    are    strange be lie vers,           all   of  us    
  Q.       T  T  T   T  E.      S  E   E       Q.      Q     E   Q     
-------------------------------13-12--------|---------15----13--13----|
----------13--L-15---L-15-------------15----|-------------------------|
-------------------------------10--9--------|---------12----10--10----|
----------10--L-12---L-12-------------12----|-------------------------|
--------------------------------------------|-------------------------|
--------------------------------------------|-------------------------|


            There    are    stran ger truths,              im  mor tal lust    
   Q    E   T     T  T   T  E     E   E      E     Q.      E   E   E   E   E   
---L--------------------------------------------|---------12--15--15--13------|
-----------13-----L-15---L-15----15--15---------|-----------------------------|
---L--------------------------------------------|----------9--10--12--10------|
-----------10-----L-12---L-12----12--12---------|-----------------------------|
------------------------------------------------|-----------------------------|
------------------------------------------------|-----------------------------|


          We  rise from slum    ber,     he  calls our    name 
  Q.      E   E.   E.   E       E   E.   E   Q     S   S  E.   
----------------------------|-----------13--15----13---L-13---|
---------13--15---13---15---|--15-----------------------------|
----------------------------|-----------10--12----10---L-10---|
---------10--12---10---12---|--12-----------------------------|
----------------------------|---------------------------------|
----------------------------|---------------------------------|


            Re calls our num ber,           a   bide  with  
   E  Q     S  E.    E   E   E      Q.      E   Q     Q     
---L----------------13--12-------|---------12--13----15----|
-----------15-15------------15---|-------------------------|
---L----------------10---9-------|----------9--10----12----|
-----------12-12------------12---|-------------------------|
---------------------------------|-------------------------|
---------------------------------|-------------------------|


  Pre-Coro                                                          
            pa                                    aa                
  Q         H.               W                    W                 
-----------17------------|---L----------------|--15----------------|
-------------------------|--------------------|--------------------|
-----------14------------|---L----------------|--12----------------|
-------------------------|--------------------|--------------------|
-------------------------|--------------------|--------------------|
-------------------------|--------------------|--------------------|


                        in                                     
   W                    W                    W                 
---L----------------|--13----------------|---L----------------|
--------------------|--------------------|--------------------|
---L----------------|--10----------------|---L----------------|
--------------------|--------------------|--------------------|
--------------------|--------------------|--------------------|
--------------------|--------------------|--------------------|


                                           Coro                         
                                           Reef in  a   sail    at  the 
  W                   W                    E    E   E   Q.      E   E   
-------------------|-------------------|--17---15--13--17------15--13--|
-------------------|-------------------|-------------------------------|
-------------------|-------------------|--14---12--10--14------12--10--|
-------------------|-------------------|-------------------------------|
-------------------|-------------------|-------------------------------|
-------------------|-------------------|-------------------------------|


   edge of  the    world   If  e      ter   ni  ty    should fa  
   E    E   S   S  Q.      E   E      Q     E   Q     Q      E   
--17---15--13---L---------17--17--|--17----13--------13-----15--|
------------------15--------------|------------15---------------|
--14---12--10---L---------14--14--|--14----10--------10-----12--|
------------------12--------------|------------12---------------|
----------------------------------|-----------------------------|
----------------------------------|-----------------------------|


   il                   Wai ting in  line    for the 
   W                    E   E    E   Q.      E   E   
--17----------------|--17--17---17--17------17--18--|
--------------------|-------------------------------|
--14----------------|--14--14---14--14------14--15--|
--------------------|-------------------------------|
--------------------|-------------------------------|
--------------------|-------------------------------|


   en  ding of  time    If  e      ter   ni  ty    should fa  
   E   E    E   Q.      E   E      Q     E   Q     Q      E   
--20--18---17--15------20--20--|--20----13--15----17-----15--|
-------------------------------|-------------------------17--|
--17--15---14--12------17--17--|--17----10--12----14-----12--|
-------------------------------|-----------------------------|
-------------------------------|-----------------------------|
-------------------------------|-----------------------------|


   il                   Reef in  a   sail    at  the 
   W                    E    E   E   Q.      E   E   
--13----------------|--17---15--13--17------15--13--|
--15----------------|-------------------------------|
--10----------------|--14---12--10--14------12--10--|
--------------------|-------------------------------|
--------------------|-------------------------------|
--------------------|-------------------------------|


   edge of  the    world   If  e      ter   ni  ty    should fa  
   E    E   S   S  Q.      E   E      Q     E   Q     Q      E   
--17---15--13---L---------17--17--|--17----13--------13-----15--|
------------------15--------------|------------15---------------|
--14---12--10---L---------14--14--|--14----10--------10-----12--|
------------------12--------------|------------12---------------|
----------------------------------|-----------------------------|
----------------------------------|-----------------------------|


   il                   Wai ting in  line    for the 
   W                    E   E    E   Q.      E   E   
--17----------------|--17--17---17--17------17--18--|
--------------------|-------------------------------|
--14----------------|--14--14---14--14------14--15--|
--------------------|-------------------------------|
--------------------|-------------------------------|
--------------------|-------------------------------|


   en  ding of  time    If  e      ter   ni  ty    should fa  
   E   E    E   Q.      E   E      Q     E   Q     Q      E   
--20--18---17--15------20--20--|--20----13--15----17-----15--|
-------------------------------|-------------------------17--|
--17--15---14--12------17--17--|--17----10--12----14-----12--|
-------------------------------|-----------------------------|
-------------------------------|-----------------------------|
-------------------------------|-----------------------------|


                       Riff A                                
   il                                                        
   W                   W                   W                 
--13----------------|-------------------|-------------------|
--15----------------|-------------------|-------------------|
--10----------------|-------------------|-------------------|
--------------------|-------------------|-------------------|
--------------------|-------------------|-------------------|
--------------------|-------------------|-------------------|


                                          Verso A                           
                                                   To    God's i   llu sion 
  W                   W                   Q.       S  S  E     E   E   E    
-------------------|-------------------|-----------------------------------|
-------------------|-------------------|----------13--L-15----15--15--15---|
-------------------|-------------------|-----------------------------------|
-------------------|-------------------|----------10--L-12----12--12--12---|
-------------------|-------------------|-----------------------------------|
-------------------|-------------------|-----------------------------------|


        which I     re  call            Was our de  lu  sion 
  Q     E     Q     E   Q       Q.      E   E   E   E   E    
-------13----15----13--13----|-------------12--12--13--12---|
-----------------------------|---------15-------------------|
-------10----12----10--10----|--------------9---9--10---9---|
-----------------------------|---------12-------------------|
-----------------------------|------------------------------|
-----------------------------|------------------------------|


          Be  fore the fall            The an  gels    come  
  Q.      E   E    E   Q       Q.      E   E   S    S  Q     
---------15--13---15--17----|-------------------------------|
----------------------------|---------13--15--15----L-15----|
---------12--10---12--14----|-------------------------------|
----------------------------|---------10--12--12----L-12----|
----------------------------|-------------------------------|
----------------------------|-------------------------------|


          and the an   gels go              But the    lord of  light 
  Q    S  S   S   E.   E    Q       Q.      S   T   T  E    E   Q     
---------12--13--15---13---13----|-------------------------13--------|
---------------------------------|---------13--15---L-15-------15----|
----------9--10--12---10---10----|-------------------------10--------|
---------------------------------|---------10--12---L-12-------12----|
---------------------------------|-----------------------------------|
---------------------------------|-----------------------------------|


                             Puente                                     
        shi   ning  be       lo            oo       oo            oo    
  Q     Q     Q     Q        H.            Q        H.            Q     
-------15----13----15----|--17------------17----|--15------------15----|
-------------------------|----------------------|----------------------|
-------12----10----12----|--14------------14----|--12------------12----|
-------------------------|----------------------|----------------------|
-------------------------|----------------------|----------------------|
-------------------------|----------------------|----------------------|


   oo        ow                                
   Q     E   E   H           W                 
--13-----L----------------|-------------------|
------------15---L--------|-------------------|
--10-----L----------------|-------------------|
------------12---L--------|-------------------|
--------------------------|-------------------|
--------------------------|-------------------|


  Verso B                                                         
           E   ter nal    black ness           be yond  the stars 
  Q.       E   E   S   S  E     E      Q    S  S  Q     E   Q     
-------------------------12---------|---------13-15----13--13----|
----------13--15--15---L-------15---|----------------------------|
--------------------------9---------|---------10-12----10--10----|
----------10--12--12---L-------12---|----------------------------|
------------------------------------|----------------------------|
------------------------------------|----------------------------|


          We  think our wis dom           will get that far   
  Q.      E   E     E   E   E     Q.      E    E   E    Q     
---------------------------12--|---------12---13--15---17----|
---------13--15----15--15------|-----------------------------|
----------------------------9--|----------9---10--12---14----|
---------10--12----12--12------|-----------------------------|
-------------------------------|-----------------------------|
-------------------------------|-----------------------------|


          At the    mas ter's ta  ble,           the ta   ble's bare    
  Q.      S  T   T  E   E     E   E      Q.      S.  E.   E.    E    T  
-----------------------------13-------|---------13--15---13----13----L-|
---------13-15---L-15--15--------15---|--------------------------------|
-----------------------------10-------|---------10--12---10----10----L-|
---------10-12---L-12--12--------12---|--------------------------------|
--------------------------------------|--------------------------------|
--------------------------------------|--------------------------------|


           No  land of  plen ty,         de  vas ta  tion,    
  E  Q     E   E    E   E    E     Q     E   E   E   Q    E   
-------------------13--12-------|-------13--12--13--15-------|
----------13--15------------15--|----------------------------|
-------------------10---9-------|-------10---9--10--12-------|
----------10--12------------12--|----------------------------|
--------------------------------|----------------------------|
--------------------------------|----------------------------|


  Pre-Coro                                                            
            des   pa                                                  
  Q         Q     H            W                    W                 
-----------17----17--------|---L----------------|---L----------------|
---------------------------|--------------------|--------------------|
-----------14----14--------|---L----------------|---L----------------|
---------------------------|--------------------|--------------------|
---------------------------|--------------------|--------------------|
---------------------------|--------------------|--------------------|


   aa                                 ir                         
   W                    H.            Q        W                 
--15----------------|---L------------13----|---L----------------|
--------------------|----------------------|--------------------|
--12----------------|---L------------10----|---L----------------|
--------------------|----------------------|--------------------|
--------------------|----------------------|--------------------|
--------------------|----------------------|--------------------|


                                           Coro                         
                                           Reef in  a   sail    at  the 
  W                   W                    E    E   E   Q.      E   E   
-------------------|-------------------|--17---15--13--17------15--13--|
-------------------|-------------------|-------------------------------|
-------------------|-------------------|--14---12--10--14------12--10--|
-------------------|-------------------|-------------------------------|
-------------------|-------------------|-------------------------------|
-------------------|-------------------|-------------------------------|


   edge of  the    world   If  e      ter   ni  ty    should fa  
   E    E   S   S  Q.      E   E      Q     E   Q     Q      E   
--17---15--13---L---------17--17--|--17----13--------13-----15--|
------------------15--------------|------------15---------------|
--14---12--10---L---------14--14--|--14----10--------10-----12--|
------------------12--------------|------------12---------------|
----------------------------------|-----------------------------|
----------------------------------|-----------------------------|


   il                   Wai ting in  line    for the 
   W                    E   E    E   Q.      E   E   
--17----------------|--17--17---17--17------17--18--|
--------------------|-------------------------------|
--14----------------|--14--14---14--14------14--15--|
--------------------|-------------------------------|
--------------------|-------------------------------|
--------------------|-------------------------------|


   en  ding of  time    If  e      ter   ni  ty    should fa  
   E   E    E   Q.      E   E      Q     E   Q     Q      E   
--20--18---17--15------20--20--|--20----13--15----17-----15--|
-------------------------------|-------------------------17--|
--17--15---14--12------17--17--|--17----10--12----14-----12--|
-------------------------------|-----------------------------|
-------------------------------|-----------------------------|
-------------------------------|-----------------------------|


   il                   Reef in  a   sail    at  the 
   W                    E    E   E   Q.      E   E   
--13----------------|--17---15--13--17------15--13--|
--15----------------|-------------------------------|
--10----------------|--14---12--10--14------12--10--|
--------------------|-------------------------------|
--------------------|-------------------------------|
--------------------|-------------------------------|


   edge of  the    world   If  e      ter   ni  ty    should fa  
   E    E   S   S  Q.      E   E      Q     E   Q     Q      E   
--17---15--13---L---------17--17--|--17----13--------13-----15--|
------------------15--------------|------------15---------------|
--14---12--10---L---------14--14--|--14----10--------10-----12--|
------------------12--------------|------------12---------------|
----------------------------------|-----------------------------|
----------------------------------|-----------------------------|


   il                   Wai ting in  line    at  the 
   W                    E   E    E   Q.      E   E   
--17----------------|--17--17---17--17------17--18--|
--------------------|-------------------------------|
--14----------------|--14--14---14--14------14--15--|
--------------------|-------------------------------|
--------------------|-------------------------------|
--------------------|-------------------------------|


   en  ding of  time    If  e      ter   ni  ty    should fa  
   E   E    E   Q.      E   E      Q     E   Q     Q      E   
--20--18---17--15------20--20--|--20----13--15----17-----15--|
-------------------------------|-------------------------17--|
--17--15---14--12------17--17--|--17----10--12----14-----12--|
-------------------------------|-----------------------------|
-------------------------------|-----------------------------|
-------------------------------|-----------------------------|


                       Break                                 
   il                                                        
   W                   W                   W                 
--13----------------|-------------------|-------------------|
--15----------------|-------------------|-------------------|
--10----------------|-------------------|-------------------|
--------------------|-------------------|-------------------|
--------------------|-------------------|-------------------|
--------------------|-------------------|-------------------|


                                           Coro                         
                                           Reef in  a   sail    at  the 
  W                   W                    E    E   E   Q.      E   E   
-------------------|-------------------|--17---15--13--17------15--13--|
-------------------|-------------------|-------------------------------|
-------------------|-------------------|--14---12--10--14------12--10--|
-------------------|-------------------|-------------------------------|
-------------------|-------------------|-------------------------------|
-------------------|-------------------|-------------------------------|


   edge of  the    world   If  e      ter   ni  ty    should fa  
   E    E   S   S  Q.      E   E      Q     E   Q     Q      E   
--17---15--13---L---------17--17--|--17----13--------13-----15--|
------------------15--------------|------------15---------------|
--14---12--10---L---------14--14--|--14----10--------10-----12--|
------------------12--------------|------------12---------------|
----------------------------------|-----------------------------|
----------------------------------|-----------------------------|


   Solo Adrian Smith                                 
   il                   Wai ting in  line    for the 
   W                    E   E    E   Q.      E   E   
--17----------------|--17--17---17--17------17--18--|
--------------------|-------------------------------|
--14----------------|--14--14---14--14------14--15--|
--------------------|-------------------------------|
--------------------|-------------------------------|
--------------------|-------------------------------|


   en  ding of  time    If  e      ter   ni  ty    should fa  
   E   E    E   Q.      E   E      Q     E   Q     Q      E   
--20--18---17--15------20--20--|--20----13--15----17-----15--|
-------------------------------|-------------------------17--|
--17--15---14--12------17--17--|--17----10--12----14-----12--|
-------------------------------|-----------------------------|
-------------------------------|-----------------------------|
-------------------------------|-----------------------------|


   il                   Reef in  a   sail    at  the 
   W                    E    E   E   Q.      E   E   
--13----------------|--17---15--13--17------15--13--|
--15----------------|-------------------------------|
--10----------------|--14---12--10--14------12--10--|
--------------------|-------------------------------|
--------------------|-------------------------------|
--------------------|-------------------------------|


   edge of  the    world   If  e      ter   ni  ty    should fa  
   E    E   S   S  Q.      E   E      Q     E   Q     Q      E   
--17---15--13---L---------17--17--|--17----13--------13-----15--|
------------------15--------------|------------15---------------|
--14---12--10---L---------14--14--|--14----10--------10-----12--|
------------------12--------------|------------12---------------|
----------------------------------|-----------------------------|
----------------------------------|-----------------------------|


   il                   Wai ting in  line    at  the 
   W                    E   E    E   Q.      E   E   
--17----------------|--17--17---17--17------17--18--|
--------------------|-------------------------------|
--14----------------|--14--14---14--14------14--15--|
--------------------|-------------------------------|
--------------------|-------------------------------|
--------------------|-------------------------------|


   en  ding of  time    If  e      ter   ni  ty    should fa  
   E   E    E   Q.      E   E      Q     E   Q     Q      E   
--20--18---17--15------20--20--|--20----17--15----17-----15--|
-------------------------------|-------------------------17--|
--17--15---14--12------17--17--|--17----14--12----14-----12--|
-------------------------------|-----------------------------|
-------------------------------|-----------------------------|
-------------------------------|-----------------------------|


                        Outro Coro                         
   il                   Reef       in  a   sail    at  the 
   W                    E          E   E   Q.      E   E   
--13----------------|--17---------15--13--17------15--13--|
--15----------------|-------------------------------------|
--10----------------|--14---------12--10--14------12--10--|
--------------------|-------------------------------------|
--------------------|-------------------------------------|
--------------------|-------------------------------------|


   edge of  the    world   If  e      ter   ni  ty    should fa  
   E    E   S   S  Q.      E   E      Q     E   Q     Q      E   
--17---15--13---L---------17--17--|--17----13--------13-----15--|
------------------15--------------|------------15---------------|
--14---12--10---L---------14--14--|--14----10--------10-----12--|
------------------12--------------|------------12---------------|
----------------------------------|-----------------------------|
----------------------------------|-----------------------------|


   il                   Wai ting in  line    at  the 
   W                    E   E    E   Q.      E   E   
--17----------------|--17--17---17--17------17--18--|
--------------------|-------------------------------|
--14----------------|--14--14---14--14------14--15--|
--------------------|-------------------------------|
--------------------|-------------------------------|
--------------------|-------------------------------|


   en  ding of  time    If  e      ter   ni  ty    should fa  
   E   E    E   Q.      E   E      Q     E   Q     Q      E   
--20--18---17--15------20--20--|--20----13--15----17-----15--|
-------------------------------|-------------------------17--|
--17--15---14--12------17--17--|--17----10--12----14-----12--|
-------------------------------|-----------------------------|
-------------------------------|-----------------------------|
-------------------------------|-----------------------------|


   il                   Reef in  a   sail    at  the 
   W                    E    E   E   Q.      E   E   
--13----------------|--17---15--13--17------15--13--|
--15----------------|-------------------------------|
--10----------------|--14---12--10--14------12--10--|
--------------------|-------------------------------|
--------------------|-------------------------------|
--------------------|-------------------------------|


   edge of  the    world   If  e      ter   ni  ty    should fa  
   E    E   S   S  Q.      E   E      Q     E   Q     Q      E   
--17---15--13---L---------17--17--|--17----13--------13-----15--|
------------------15--------------|------------15---------------|
--14---12--10---L---------14--14--|--14----10--------10-----12--|
------------------12--------------|------------12---------------|
----------------------------------|-----------------------------|
----------------------------------|-----------------------------|


   il                   Wai ting in  line    at  the 
   W                    E   E    E   Q.      E   E   
--17----------------|--17--17---17--17------17--18--|
--------------------|-------------------------------|
--14----------------|--14--14---14--14------14--15--|
--------------------|-------------------------------|
--------------------|-------------------------------|
--------------------|-------------------------------|


   en  ding of  time    If  e      ter   ni  ty    should fa  
   E   E    E   Q.      E   E      Q     E   Q     Q      E   
--20--18---17--15------20--20--|--20----17--15----17-----15--|
-------------------------------|-------------------------17--|
--17--15---14--12------17--17--|--17----14--12----14-----12--|
-------------------------------|-----------------------------|
-------------------------------|-----------------------------|
-------------------------------|-----------------------------|


   Outro                                                      
   il.                                                        
   W                    W                   W                 
--13----------------|---L----------------|-------------------|
--15----------------|---L----------------|-------------------|
--10----------------|---L----------------|-------------------|
--------------------|--------------------|-------------------|
--------------------|--------------------|-------------------|
--------------------|--------------------|-------------------|


  W                  
-------------------||
-------------------||
-------------------||
-------------------||
-------------------||
-------------------||




keyboard #1:
                            
Steve Harris (Teclado)


          Intro                "Continue Through The Whole Intro"
     S    Q     H.              W                   W                 
E||----|---------------------|-------------------|-------------------|
B||----|---------------------|-------------------|-------------------|
G||----|---------------------|-------------------|-------------------|
D||----|--------0------------|--0----------------|--0----------------|
A||----|---------------------|-------------------|-------------------|
D||----|--0-----0------------|--0----------------|--0----------------|




keyboard #2:
                           
Steve Harris (Teclado)


          Intro                                                         
     S    W                   W                   H        Q.      S S  
E||----|-------------------|-------------------|-----------------------|
B||----|-------------------|-------------------|------------------10-8-|
G||----|-------------------|-------------------|-----------------------|
D||----|-------------------|-------------------|-----------------------|
A||----|-------------------|-------------------|-----------------------|
D||----|-------------------|-------------------|-----------------------|


                                                                   |---3--|    
   W                    H.            E  E     E.   E.   E.   E.   E  E   E    
--------------------|-----------------------|---------------------------------|
--10----------------|---L-------------L-----|------13---11---11---10--8--10~--|
--------------------|-----------------------|---------------------------------|
--------------------|-----------------------|---------------------------------|
--------------------|-----------------------|---------------------------------|
--------------------|-----------------------|---------------------------------|


   W                    H.           Q       W                 
--------------------|---------------------|-------------------|
---L----------------|---L-----------------|-------------------|
--------------------|---------------------|-------------------|
--------------------|---------------------|-------------------|
--------------------|---------------------|-------------------|
--------------------|---------------------|-------------------|


  W                   W                   W                   W                 
-------------------|-------------------|-------------------|-------------------|
-------------------|-------------------|-------------------|-------------------|
-------------------|-------------------|-------------------|-------------------|
-------------------|-------------------|-------------------|-------------------|
-------------------|-------------------|-------------------|-------------------|
-------------------|-------------------|-------------------|-------------------|


  W                   W                   W                   W                 
-------------------|-------------------|-------------------|-------------------|
-------------------|-------------------|-------------------|-------------------|
-------------------|-------------------|-------------------|-------------------|
-------------------|-------------------|-------------------|-------------------|
-------------------|-------------------|-------------------|-------------------|
-------------------|-------------------|-------------------|-------------------|


  W                   H        Q.      S S     W                 
-------------------|-----------------------|--------------------|
-------------------|------------------10-8-|--10----------------|
-------------------|-----------------------|--------------------|
-------------------|-----------------------|--------------------|
-------------------|-----------------------|--------------------|
-------------------|-----------------------|--------------------|


                                         |---3--|                              
   H.            E  E     E.   E.   E.   E   E  E   E.       W                 
-----------------------|---------------------------------|--------------------|
---L-------------L-----|------13---11---11--10--8--10~---|---L----------------|
-----------------------|---------------------------------|--------------------|
-----------------------|---------------------------------|--------------------|
-----------------------|---------------------------------|--------------------|
-----------------------|---------------------------------|--------------------|


                           3  3       3                                    
   H.           Q       S  E  E.   S  Q     H            W                 
---------------------|-------------------------------|--------------------|
---L-----------------|----10--8---10--L-----L--------|---L----------------|
---------------------|-------------------------------|--------------------|
---------------------|-------------------------------|--------------------|
---------------------|-------------------------------|--------------------|
---------------------|-------------------------------|--------------------|


                      |---3--|                                             
   Q    E   E.   E.   E   E  E      W                    W                 
--------------------------------|--------------------|--------------------|
---L-------13---11---11--10--8--|--10----------------|---L----------------|
--------------------------------|--------------------|--------------------|
--------------------------------|--------------------|--------------------|
--------------------------------|--------------------|--------------------|
--------------------------------|--------------------|--------------------|


   \1/                                                         
   W                    Q    H.              W                 
--------------------|---------------------|-------------------|
---L----------------|---L-----------------|-------------------|
--------------------|---------------------|-------------------|
--------------------|---------------------|-------------------|
--------------------|---------------------|-------------------|
--------------------|---------------------|-------------------|



  W                  
-------------------||
-------------------||
-------------------||
-------------------||
-------------------||
-------------------||




Duration Legend
---------------
W - whole
H - half
Q - quarter
E - 8th
S - 16th
T - 32nd
X - 64th
. - note dotted
|-n-|  - n-tuplets


Tablature Legend
----------------
L - tied note
x - dead note
g - grace note
(n) - ghost note
> - accentuded note
NH - natural harmonic
AH - artificial harmonic
TH - tapped harmonic
SH - semi harmonic
PH - pitch harmonic
h - hammer on
p - pull off
b - bend
br - bendRelease
pb - preBend
pbr - preBendRelease
brb - bendReleaseBend
\n/ - tremolo bar dip
\n - tremolo bar dive
-/n - tremolo bar Release up
/n\ - tremolo bar inverted dip
/n - tremolo bar return
-\n - tremolo bar Release down
S - shift slide
s - legato slide
/ -  slide into from below or out of upwards
\ -  slide into from above or out of downwards
~ - vibrato
W - wide vibrato
tr - trill
TP - tremolo picking
T - tapping
S - slap
P - pop
< - fade in
^ - brush up
v - brush down
Добавлено: 11.04.2016
Другие материалы по этой песне:

Страница создана 27.02.2016
http://primanota.ru/iron-maiden/if-eternity-should-fail-chords.htm
Привет, Гость.
Предлагаем пройти революционный курс по гитаре.
Подарок от PrimaNota.Ru, забирай!