PrimaNota.ru - самый крупный в мире бесплатный архив песенных текстов, аккордов, табулатур и нот


Iron Maiden - 2 A.M. - текст песни, таба, бас-таба, драм-таба, перевод, видео

Регистрация Запомнить меня
Войти через:  Facebook Google Twitter Vk Yandex Mail.ru

Iron Maiden - 2 A.M. - текст песни, таба, бас-таба, драм-таба, перевод, видео

Печатать
Просмотров: 339
-------------------------------------------------------------------------------
			    2 AM - Iron Maiden
-------------------------------------------------------------------------------
Tabbed by: JanickClone

| ^  bend to
| r  release bend
| /  slide up
| \  slide down
| h  hammer-on
| p  pull-off
| ~  slight vibrato
| ~~ vibrato
| +  harmonic
| x  Mute note
===============================================================================

Tuning: Standard

3:01   Repeat 2x
e|-87-87-87-87-------------5--/8-7~~-----87-87-87-87-------------5--/12-10~~-|
B|-------------5~----5-5-6--------------------------5~----5-5-6--------------|
G|---------------------------------------------------------------------------|
D|---------------------------------------------------------------------------|
A|---------------------------------------------------------------------------|
E|---------------------------------------------------------------------------|

3:25
e|-----------------17-15-14-----------------19-17----------------------------|
B|-15^17~--15^17~-----------17--15--17~-----------20-19-20-19--15-15-15-15---|
G|---------------------------------------------------------------------------|
D|---------------------------------------------------------------------------|
A|---------------------------------------------------------------------------|
E|---------------------------------------------------------------------------|

3:31
e|--19-19-20--17-19--15-17--14-15--12--14p12---12~----19-17------------------|
B|------------------------------------------15--------------20-19-20-19------|
G|---------------------------------------------------------------------19----|
D|------------------------------------------------------------------------19~|
A|---------------------------------------------------------------------------|
E|---------------------------------------------------------------------------|

3:37
e|----------------17~--------------17~---19-17-------------------------------|
B|----17-17--19-20-----17-17--19-20------------20-19-20-19-------------------|
G|-16------------------------------------------------------19----------------|
D|------------------------------------------------------------19~------------|
A|---------------------------------------------------------------------------|
E|---------------------------------------------------------------------------|

3:43
e|-----------------------------17~----------------------19-17----------------|
B|-16--17-17-19-20-19-17-19-20------20-19-20-19-17-----------20-19-20-19-----|
G|-------------------------------------------------19~-------------------19~-|
D|---------------------------------------------------------------------------|
A|---------------------------------------------------------------------------|
E|---------------------------------------------------------------------------|


3:49   Repeat 2x
e|-87-87-87-87-------------5--/8-7~~-----87-87-87-87-------------5--/12-10~~-|
B|-------------5~----5-5-6--------------------------5~----5-5-6--------------|
G|---------------------------------------------------------------------------|
D|---------------------------------------------------------------------------|
A|---------------------------------------------------------------------------|
E|---------------------------------------------------------------------------|

==============================================================================
Добавлено: 10.11.2013
Другие материалы по этой песне:

Страница создана 25.03.2012
http://primanota.ru/iron-maiden/2-am-chords.htm
Привет, Гость.
Предлагаем пройти революционный курс по гитаре.
Подарок от PrimaNota.Ru, забирай!