PrimaNota.ru - самый крупный в мире бесплатный архив песенных текстов, аккордов, табулатур и нот


Iron Cross - Crucified For Our Sins - бас-таба, видео

Регистрация Запомнить меня
Войти через:  Facebook Google Twitter Vk Yandex Mail.ru

Iron Cross - Crucified For Our Sins - бас-таба, видео

Печатать
Просмотров: 90
Song: Crucified For Our Sins
Artist: Iron Cross
Album: Skinhead Glory
Genre: Hardcore Punk/Oi!
Year: 1982

Hey guys! This is the bass tab of this great skinhead anthem (hey, we skinheads are not 
neo-nazis, the neo-nazis are not skinheads)! I think it's 90/95% correct, but it's a little 
different by the cover maden by Agnostic Front.
Anyway, enjoy the Iron Cross!

Part 1:

G:-------------------------------------------------------------------------------------
D:-----------------------------9-7-----------------------------------------------------
A:---------------------------------9-7-------5-55555555555555-----------7--10--7-------
E:---0-00000000000000-7-777777---------9-7-5------------------5-555555-----------9-7---

G:----------------------------------------------------------------
D:-----------------------------9-7--------------------------------
A:---------------------------------9-7-------5-55555555555555-----
E:---0-00000000000000-7-777777---------9-7-5------------------5---

Part 2:

G:---------------------------------------
D:---------------------------------------
A:---------------------------------------
E:---0--5-7-77777777-0--5-77-5-5555555---

Part 3:

G:-----------------------------------------
D:-----------------------------------------
A:---------------------55555555------------
E:---00000000-77777777----------55555555---

Part 4:

G:-------------------------------
D:-------------------------------
A:-------------------------------
E:---0--5-7-77777777-0--5-77-5---

The order is:
.Part 1 x1
.Part 2 x2
.Part 3 x4
.Part 2 x2
.Part 3 x4
.Part 2 x2 
.Part 1 x1
.Part 2 x3
.Part 4 x1




Tab by: mdc_ivan







Добавлено: 30.05.2016
Другие материалы по этой песне:
  • Аккорды и текст

Страница создана 30.05.2016
http://primanota.ru/iron-cross/crucified-for-our-sins-chords.htm
Привет, Гость.
Предлагаем пройти революционный курс по гитаре.
Подарок от PrimaNota.Ru, забирай!