PrimaNota.ru - самый крупный в мире бесплатный архив песенных текстов, аккордов, табулатур и нот


Iron Butterfly - So-lo - бас-таба, видео

Регистрация Запомнить меня
Войти через:  Facebook Google Twitter Vk Yandex Mail.ru

Iron Butterfly - So-lo - бас-таба, видео

Печатать
Просмотров: 195
Уроки эстрадного вокала в Санкт-Петербурге
Авторы: Darryl DeLoach, Doug Ingle

-------------------------------------------------------------------------------
			     SO-LO - Iron Butterfly
-------------------------------------------------------------------------------

Tabbed By : WibbleWobble
e-mail: organisedchaos@talktalk.net

Tuning: standard EADG

From the album "Heavy" 1968
Bassist:  Jerry Penrod
quite a simple song but nice to play

play this bit from 00:10 to 01:15
G|------------------------------------------7--5-----------------------------|
D|-0-555-0-444-0-333-0-222----------------7--7--5-7--------------------------|
A|-------------------------3-555555555555------------------------------------|
E|---------------------------------------------------------------------------|

then from 01:16 to 01:34
G|---------------------------------------------------------------------------|
D|-5-4~0-3-2~--------9-7-------5-4~0-3-2~--------9-7-------------------------|
A|-----------3-5-7h9----9-5-5------------3-5-7h9-----9-5-5-------------------|
E|---------------------------------------------------------------------------|
repeat this twice:  
G|---------------------------2-4-5-----------4-5-6-7-------------------------|
D|-----------2-4-5-----2-3-5-----------4-5-7---------------------------------|
A|-----2-3-5-------3-5-------------5-7---------------------------------------|
E|-3-5-----------------------------------------------------------------------|

& repeat from the beginning
Добавлено: 15.04.2012
Другие материалы по этой песне:
  • Аккорды и текст

Страница создана 15.04.2012
http://primanota.ru/iron-butterfly/so-lo-chords.htm
Привет, Гость.
Предлагаем пройти революционный курс по гитаре.
Подарок от PrimaNota.Ru, забирай!