PrimaNota.ru - самый крупный в мире бесплатный архив песенных текстов, аккордов, табулатур и нот


Iron Butterfly - Most Anything You Want - текст песни, таба, бас-таба, видео

Регистрация Запомнить меня
Войти через:  Facebook Google Twitter Vk Yandex Mail.ru

Iron Butterfly - Most Anything You Want - текст песни, таба, бас-таба, видео

Печатать
Просмотров: 140
Авторы музыки: Doug Ingle
Авторы текста: Doug Ingle
Iron Butterfly-Most Anything You Want
Tabbed By:John-Lennon
Tuning:Standard
Intro:
E----------|
B----------|
G-12-10-5-6|
D-12-10-5-6|
A-10-8--3-4|
E----------| play 2x

Verse:
E-5555------------|
B-5555---------7-9|
G-5555---------7-9|
D--------5---7-7-9|
A-----5h7-7h9--5-7|
E-----------------| Play 5x

Bridge:
E--------------|
B---6------8---|
G----7-------9-|
D-----7-----9-9|
A-5----5--7----|
E--------------| Play 5x

Then Go back to the verse. The after playing the bridge play the Intro and then straight 
in to the intro improvise for the solo. Listen to the song to get the feel and have Fun!
Добавлено: 16.07.2013
Другие материалы по этой песне:
  • Аккорды и текст

Страница создана 12.03.2012
http://primanota.ru/iron-butterfly/most-anything-you-want-chords.htm
Привет, Гость.
Предлагаем пройти революционный курс по гитаре.
Подарок от PrimaNota.Ru, забирай!