PrimaNota.ru - самый крупный в мире бесплатный архив песенных текстов, аккордов, табулатур и нот


Iron Butterfly - Iron Butterfly Theme - таба, бас-таба, видео

Регистрация Запомнить меня
Войти через:  Facebook Google Twitter Vk Yandex Mail.ru

Iron Butterfly - Iron Butterfly Theme - таба, бас-таба, видео

Печатать
Просмотров: 208
Авторы музыки: Doug Ingle
Авторы текста: Doug Ingle
Iron Butterfly- Iron Butterfly Theme
Tabbed By:John-Lennon
Tuning:Standard E

Intro:
E--------------------------------|
B--------------------------------|
G--------------------------------|
D-8/10-10-10--8/10-10-10---------|
A-6/-8--8--8--6/-8--8--8--10-10\8|
E--------------------------8--8\6| Play This 4x

Solo:
E-------------------------------------|
B---------------8R-11R-8-11B-8--------|
G-----8-10-10B-8--------------10R-8R--|
D-9/10------------------------------10|
A-------------------------------------|
E-------------------------------------|

Bridge:
E----------------|
B----------------|
G----------------|
D----------------|
A-10-10-10-8-10-8|
E--8--8--8-6--8-6| 3x

Here is what I could figure sorry I could not figure out how he does the middle bit of 
the song. Have a listen to the song to get te feel and
Have fun!

B-Bend
R-Reverb
Добавлено: 16.07.2012
Другие материалы по этой песне:
  • Аккорды и текст

Страница создана 05.03.2012
http://primanota.ru/iron-butterfly/iron-butterfly-theme-chords.htm
Привет, Гость.
Предлагаем пройти революционный курс по гитаре.
Подарок от PrimaNota.Ru, забирай!