PrimaNota.ru - самый крупный в мире бесплатный архив песенных текстов, аккордов, табулатур и нот


Iron Butterfly - In The Time Of Our Lives - текст песни, таба, видео

Регистрация Запомнить меня
Войти через:  Facebook Google Twitter Vk Yandex Mail.ru

Iron Butterfly - In The Time Of Our Lives - текст песни, таба, видео

Печатать
Просмотров: 150
Iron Butterfly- In The Time Of Our Lives 
Tabbed By:John-Lennon
Tuning:Standard
Intro:
E------------------------|
B------------5H6P---4R-5R|
G-9-8-7-----------5------|
D-9-8-7-7-6-5----5-------|
A-7-6-5-7-6-5------------|
E-------5-4-3------------|

Verse:
E-----------------------------|
B-----------------------------|
G-----------------------------|
D-66-55-66-55-6\5-6-5---------|
A-44-33-44-33-4\3-4-3-3R-4R-5R|
E-----------------------------|

Riff:
E-----------------|
B-7-5-7-5-8-7-7-5R|
G-----------------|
D-----------------|
A-----------------| 
E-----------------|

Then play the verse and riff again 

Outro:
E------------|
B-5H6P--4R-5R|
G------5-----|
D-----5------|
A------------|
E------------|

Really good Iron Butterfly song off the album Ball have a listen to the song to 
get the feel Have Fun!
Добавлено: 08.06.2013
Другие материалы по этой песне:
  • Аккорды и текст

Страница создана 10.04.2012
http://primanota.ru/iron-butterfly/in-the-time-of-our-lives-chords.htm
Привет, Гость.
Предлагаем пройти революционный курс по гитаре.
Подарок от PrimaNota.Ru, забирай!