PrimaNota.ru - самый крупный в мире бесплатный архив песенных текстов, аккордов, табулатур и нот


Iron Butterfly - Filled With Fear - текст песни, таба, видео

Регистрация Запомнить меня
Войти через:  Facebook Google Twitter Vk Yandex Mail.ru

Iron Butterfly - Filled With Fear - текст песни, таба, видео

Печатать
Просмотров: 140
Iron Butterfly-Filled With Fear
Tabbed By:John-Lennon
Tuning:Standard
Sorry I Don't know how Erik Brann plays the intro to the song

Verse:
E--2----3---|
B----3---3--|
G---2-2---2-|
D-0----0---0|
A-----------|
E-----------|

Riff:
E----------|
B----------|
G----------|
D-5-3-3-4-5|
A----5-----|
E----------| play 2x

E---------------------10-17-15-13-12--|
B----------------10-13--------------15|
G-----------10-12---------------------|
D------10-12--------------------------|
A-10-12-------------------------------| play fast
E-------------------------------------|

E---------------------------------|
B------------------------15-14-15r|
G-12-14-15Bd-12r-10-11-12---------|
D---------------------------------|
A---------------------------------|
E---------------------------------|

E-------------------------------------------------------------------------|
B------------------------15-15-15r-13-15-16-15-13-15-16-15-13-11-10-------|
G-12-14-15Bd-12r-10-11-12------------------------------------------12-10--|
D-----------------------------------------------------------------------12|
A-------------------------------------------------------------------------|
E-------------------------------------------------------------------------|

E-------------|
B-------------|
G-10-12-10-12r|
D-------------|
A-------------|
E-------------|

E---------------------------------------------------------------|
B---15-14--13-12--15-14--13-12--15-14-15-13-15-16-15-13-15-16-15|
G-12-----12-----12-----12-----12--------------------------------|
D---------------------------------------------------------------|
A---------------------------------------------------------------|
E---------------------------------------------------------------|

E-------------------------|
B-11-10-------------------|
G------12-10--10-12-10-12r|
D-----------12------------|
A-------------------------|
E-------------------------|
Really good song by Iron Butterfly off the Ball Album. Listen to the song to get the 
feel and have Fun!
Добавлено: 09.07.2013
Другие материалы по этой песне:
  • Аккорды и текст

Страница создана 28.05.2012
http://primanota.ru/iron-butterfly/filled-with-fear-chords.htm
Привет, Гость.
Предлагаем пройти революционный курс по гитаре.
Подарок от PrimaNota.Ru, забирай!