PrimaNota.ru - самый крупный в мире бесплатный архив песенных текстов, аккордов, табулатур и нот


Iron Angel - The Metallian - таба, видео

Регистрация Запомнить меня
Войти через:  Facebook Google Twitter Vk Yandex Mail.ru

Iron Angel - The Metallian - таба, видео

Печатать
Просмотров: 164
Уроки эстрадного вокала в Санкт-Петербурге
Song: "The Metallian"
Band: Iron Angel
Album: 'Hellish Crossfire'
Year: 1985

Tuning: 1/4 step down

I'm not really sure how to notate palm-muting,
but I recommend doing it on the low E string (and sometimes A string)
for most, if not all of this song.
Also, the counting may be off for  some of the really fast notes.
Listen to the song to figure out which parts come when and how many times to play them.

Intro

E ------------------------------------------------------------|
B ------------------------------------------------------------|
G ------------------------------------------------------------|
D ------------------------------------------------------------|
A --------------------------------------------------------9-8-|
E 0-0-0-0-3-0-0-0-0-0-0-0-5-0-0-0-0-0-0-0-3-0-0-0-0-0-0-0-7-6-|

E ------|
B ------|
G ------|
D ------|
A 9-8-4-|
E 7-6-2-|

Verse

E ------------------------------------------------|
B ------------------------------------------------|
G ------------------------------------------------|
D ----------------------------------------2-------|
A 2-----------------------------------2h3---3-2---|
E 0-0-0-0-0-0-0-0-0-0-0-0-0-0-0-0-0-3-----------3-|

E ------------------------------------------------|
B ------------------------------------------------|
G ----------------------------------------7-------|
D 7-----------------------------------7h8---8-7---|
A 5-5-5-5-5-5-5-5-5-5-5-5-5-5-5-5-5-8-----------7-|
E ------------------------------------------------|


E ----------------------------------------|
B ----------------------------------------|
G ----------------------------------------|
D 7---------------------------------8-8-8-|
A 5-5-5-5-5-5-5-5-5-5-5-5-5-5-5-5-5-6-6-6-|
E ----------------------------------------|

Chorus

E ---------------------------------------------------|
B ---------------------------------------------------|
G ---------------------------------------------------|
D 7-10-4---------------------------------------------|
A 5-8--6-6-6-6-6-6-6-6-6-6-6-6-6-6-6-6-6-6-6-6-6-6-6-|

E -----------------------------------------|
B -----------------------------------------|
G -----------------------------------------|
D --------------------------------10-9-7-9-|
A 4-------------------------------8--7-5-7-|
E 2-2-2-2-2-2-2-2-2-2-2-2-2-2-2-2----------|

E ------------------------------------------|
B ------------------------------------------|
G ------------------------------------------|
D --------------------------------10-9-7-12-|
A 4-------------------------------8--7-5-10-|
E 2-2-2-2-2-2-2-2-2-2-2-2-2-2-2-2-----------|

Bridge

E ------------------------------------|
B ------------------------------------|
G ------------------------------8-7---|
D 7-----------------------------6-5-8-|
A 5-5-5-5-5-5-5-5-5-5-5-5-5-5-5-----6-|
E ------------------------------------|

E ------------------------------------|
B ------------------------------------|
G ------------------------------------|
D 7---------------------------------8-|
A 5-5-5-5-5-5-5-5-5-5-5-5-5-5-5-7-8-6-|
E ------------------------------5-6---|

E ------------------------------------|
B ------------------------------------|
G ------------------------------6-5---|
D 5-----------------------------4-3-6-|
A 3-3-3-3-3-3-3-3-3-3-3-3-3-3-3-----4-|
E ------------------------------------|

E ------------------------------------|
B ------------------------------------|
G ------------------------------------|
D 5---------------------------------6-|
A 3-3-3-3-3-3-3-3-3-3-3-3-3-3-3-5-6-4-|
E ------------------------------3-4---|

Solo (Rhythm)

E --------------------------------------------|
B --------------------------------------------|
G --------------------------------------------|
D --------------------------------------------|
A 2-----------------------------------------5-|
E 0-0-0-0-0-0-0-0-0-0-0-0-0-0-0-0-0-0-0-0-0-3-|

E --------------------------------------------|
B --------------------------------------------|
G --------------------------------------------|
D 2-----------------------------------------5-|
A 0-0-0-0-0-0-0-0-0-0-0-0-0-0-0-0-0-0-0-0-0-3-|
E --------------------------------------------|

Outro

E ----------------|
B ----------------|
G ----------------|
D 12-10-9-7-5-4-2-|
A 10-8--7-5-3-2-2-|
E --------------0-|

E --
B --
G --
D 9-
A 7-
E 0-
Добавлено: 29.06.2013
Вам также может быть интересно:
Другие материалы по этой песне:
  • Аккорды и текст

Страница создана 29.06.2013
http://primanota.ru/iron-angel/the-metallian-chords.htm
Привет, Гость.
Предлагаем пройти революционный курс по гитаре.
Подарок от PrimaNota.Ru, забирай!