PrimaNota.ru - самый крупный в мире бесплатный архив песенных текстов, аккордов, табулатур и нот


Iron & Wine - Resurrection Fern Live - таба, видео

Регистрация Запомнить меня
Войти через:  Facebook Google Twitter Vk Yandex Mail.ru

Iron & Wine - Resurrection Fern Live - таба, видео

Печатать
Просмотров: 132
Уроки эстрадного вокала в Санкт-Петербурге
-------------------------------------------------------------------------------
                             RESURRECTION FERN  - Iron and Wine
This is the live version performed for FaceCulture. View the video at
FaceCulture.com or YouTube.com.
-------------------------------------------------------------------------------
Tabbed by: Ken Chando
Email:kdchando@yahoo.com

Tuning: Standard, capo 4th fret

Verses: 8X
e|-------0---------------0---------------0---------------0--------|
B|-1---------------1*--------------0h1-------------0h1------------|
G|-----------0---------------0---------------0---------------0----|
D|-----2-------2-------2-------2-------2-------2-------2-------2--|
A|-3-------3-------3-------3-------3-------3-------3-------3------|
E|----------------------------------------------------------------|
  | . , . , . , . | . , . , . , . | . , . , . , . | . , . , . , .
* - 0h1 Hammer-on after first verse

e|-------0-------0---------------0---------------0----------------|
B|-----------------------0---------------0---------------0--------|
G|-0-----------------0---------------0---------------0------------|
D|-----2-------2-------2-------2-------2-------2-------2-------2--|
A|---------0h2-------------0h2-------------0h2-------------0h2----|
E|-0---------------0---------------0---------------0--------------|
  | . , . , . , . | . , . , . , . | . , . , . , . | . , . , . , .

e|-------1---------------1---------------0---------------0--------|
B|---------------------------------1---------------0h1------------|
G|-2---------------2-------------------------0---------------0----|
D|-----------3---------------3---------2-------2-------2-------2--|
A|-----3-------3-------3-------3---3-------3-------3-------3------|
E|-1-------1-------1-------1--------------------------------------|
  | . , . , . , . | . , . , . , . | . , . , . , . | . , . , . , .

e|-------3-------3---------------3---------------3----------------|
B|-0---------------------0---------------0------------------------|
G|-------------------0---------------0---------------0------------|
D|-----0-------0-------0-------0-------0-------0------------------|
A|---------0h2-------------0h2-------------0h2-------------0---2--|
E|-3---------------3---------------3---------------3---3----------|
  | . , . , . , . | . , . , . , . | . , . , . , . | . , . , . , .

Chorus: 2X
e|-------1---------------1---------------0---------------0--------|
B|---------------------------------1---------------0h1------------|
G|-2---------------2-------------------------0---------------0----|
D|-----------3---------------3---------2-------2-------2-------2--|
A|-----3-------3-------3-------3---3-------3-------3-------3------|
E|-1-------1-------1-------1--------------------------------------|
  | . , . , . , . | . , . , . , . | . , . , . , . | . , . , . , .

e|-------1---------------1---------------3-------3----------------|
B|---------------------------------0------------------------------|
G|-2---------------2---------------------------------0------------|
D|-----------3---------------3---------0-------0------------------|
A|-----3-------3-------3-------3-----------0h2-------------0---2--|
E|-1-------1-------1-------1-------3---------------3---3----------|
  | . , . , . , . | . , . , . , . | . , . , . , . | . , . , . , .

Break:
e|-------0---------------0-------3-------0------------------------|
B|-1---------------0h1---------------------------3-------0--------|
G|-----------0---------------0-------0-------0-------0-------0----|
D|-----2-------2-------2-------2-------2-------2-------2-------2--|
A|-3-------3-------3-------3-------3-------3-------3-------3------|
E|----------------------------------------------------------------|
  | . , . , . , . | . , . , . , . | . , . , . , . | . , . , . , .

e|-------0-------0---------------0---------------0----------------|
B|-----------------------0---------------0---------------0--------|
G|-0-----------------0---------------0---------------0------------|
D|-----2-------2-------2-------2-------2-------2-------2-------2--|
A|---------0h2-------------0h2-------------0h2-------------0h2----|
E|-0---------------0---------------0---------------0--------------|
  | . , . , . , . | . , . , . , . | . , . , . , . | . , . , . , .

e|-------1---------------1---------------0-----3---------0--------|
B|---------------------------------1-------0h1-----1--------------|
G|-2---------------2-----------------------------------------0----|
D|-----------3---------------3---------2---------------2-------0--|
A|-----3-------3-------3-------3---3---------------3-------3------|
E|-1-------1-------1-------1--------------------------------------|
  | . , . , . , . | . , . , . , . | . , . , . , . | . , . , . , .

e|-------3-------3---------------3---------------3----------------|
B|-0---------------------0---------------0------------------------|
G|-------------------0---------------0---------------0------------|
D|-----0-------0-------0-------0-------0-------0------------------|
A|---------0h2-------------0h2-------------0h2-------------0---2--|
E|-3---------------3---------------3---------------3---3----------|
  | . , . , . , . | . , . , . , . | . , . , . , . | . , . , . , .

2nd Chorus:
e|-------1---------------1---------------3-------3----------------|
B|---------------------------------1------------------------------|
G|-2---------------2---------------------------0-----0---0---0----|
D|-----------3---------------3---------2---0h2---------2---0---2--|
A|-----3-------3-------3-------3---3---------------3--------------|
E|-1-------1-------1-------1--------------------------------------|
  | . , . , . , . | . , . , . , . | . , . , . , . | . , . , . , .

e|-------1---------------1---------------3-------3----------------|
B|---------------------------------0------------------------------|
G|-2---------------2--------------------------------0----0--------|
D|-----------3---------------3---------0-------0---------------0--|
A|-----3-------3-------3-------3-----------0h2---------0---2------|
E|-1-------1-------1-------1-------3---------------3--------------|
  | . , . , . , . | . , . , . , . | . , . , . , . | . , . , . , .

End
e|-------0---------------0---------------0---------------0--------|
B|-1---------------0h1-------------0h1-------------3h1------------|
G|-----------0---------------0---------------0---------------0----|
D|-----2-------2-------2-------2-------2-------2-------2-------2--|
A|-3-------3-------3-------3-------3-------3-------3-------3------|
E|----------------------------------------------------------------|
  | . , . , . , . | . , . , . , . | . , . , . , . | . , . , . , .

e|-------0-------0---------------0---------------0----------------|
B|-----------------------0---------------0---------------0--------|
G|-0-----------------0---------------0---------------0------------|
D|-----2-------2-------2-------2-------2-------2-------2-------2--|
A|---------0h2-------------0h2-------------0h2-------------0h2----|
E|-0---------------0---------------0---------------0--------------|
  | . , . , . , . | . , . , . , . | . , . , . , . | . , . , . , .

e|-------1---------------1---------------3-------3----------------|
B|---------------------------------1------------------------------|
G|-2---------------2---------------------------0-----0---0--------|
D|-----------3---------------3---------2---0h2---------2---0h2-0--|
A|-----3-------3-------3-------3---3---------------3--------------|
E|-1-------1-------1-------1--------------------------------------|
  | . , . , . , . | . , . , . , . | . , . , . , . | . , . , . , .

e|-------3-------3---------------3---------------3----------------|
B|-0---------------------0---------------0------------------------|
G|-------------------0---------------0----------------------------|
D|-----0-------0-------0-------0-------0-------0---------------0--|
A|---------0h2-------------0h2-------------0h2---------0---2------|
E|-3---------------3---------------3---------------3--------------|
  | . , . , . , . | . , . , . , . | . , . , . , . | . , . , . , .

e|----------------------------------------------------------------|
B|-1--------------------------------------------------------------|
G|----------------------------------------------------------------|
D|----------------------------------------------------------------|
A|-3--------------------------------------------------------------|
E|----------------------------------------------------------------|
  | . , . , . , . | . , . , . , . | . , . , . , . | . , . , . , .
Добавлено: 13.06.2012
Другие материалы по этой песне:

Страница создана 13.06.2012
http://primanota.ru/iron-and-wine/resurrection-fern-live-chords.htm
Привет, Гость.
Предлагаем пройти революционный курс по гитаре.
Подарок от PrimaNota.Ru, забирай!