PrimaNota.ru - самый крупный в мире бесплатный архив песенных текстов, аккордов, табулатур и нот


Iron & Wine - Loud As Hope - таба, видео

Регистрация Запомнить меня
Войти через:  Facebook Google Twitter Vk Yandex Mail.ru

Iron & Wine - Loud As Hope - таба, видео

Печатать
Просмотров: 106
Уроки эстрадного вокала в Санкт-Петербурге
Song:Loud As Hope
Artist: Sam Beam
Tuning: Standard

Didn't see this song up on here yet so I started playin around with it a bit. This isn't 
but it sounds pretty good and close.

Capo 2nd Fret
Tab relative to capo.

Intro:
         D       C       G        D
E|--------0----------------------------0---------0------|
B|--1s3-----------1------0--------3---------0-----------|
G|----------2-------0------0---------2---2----2----2----|
D|------0-----0-------2-----0---------0----0----0----0--|  x2
A|--0-------------0------2--------0---------------------|
E|------------------------------------------------------|


Verse:
Darling behave, though your boy is gone or so we've heard

         D       C       G        D
E|--------0---------------------------0---------0-------|
B|--3-------------1-----------0---3--------0------------|
G|----2-----2-------0-----0---------2---2----2----2-----|
D|------0-----0-------2-----0--------0---0-----0----0---|  x2
A|--0-------------0------2--------0---------------------|
E|------------------------------------------------------|

Summer comes with its color all to take your breath away
      Em        G             D
E|-------0------------3------------0---------0-----|
B|----------------------------3---------0----------|
G|----0----0------0-----0-------2----2----2---2----|
D|------0----0------0-----0-------0----0----0---0--|  x2
A|--2-------------------------0--------------------|
E|--------------3----------------------------------|


This repeats throughout the song. He uses the intro here and there in place of the 
This is just the base, you can expand off it to make it sound better.

Take it easy,
-Sean
Добавлено: 06.05.2012
Другие материалы по этой песне:
  • Аккорды и текст

Страница создана 06.05.2012
http://primanota.ru/iron-and-wine/loud-as-hope-chords.htm
Привет, Гость.
Предлагаем пройти революционный курс по гитаре.
Подарок от PrimaNota.Ru, забирай!