PrimaNota.ru - самый крупный в мире бесплатный архив песенных текстов, аккордов, табулатур и нот


Iron & Wine - Kingdom Of The Animals - таба, видео

Регистрация Запомнить меня
Войти через:  Facebook Google Twitter Vk Yandex Mail.ru

Iron & Wine - Kingdom Of The Animals - таба, видео

Печатать
Просмотров: 95
Song: Kingdom of the Animals
Band: Iron & Wine
Album: Around the Well / Boy with a Coin Single

As played by Sam Beam acoustically at Abrons Art Center, NY, May 18, 2009.

Standard Tuning:  Capo V


Intro:

  Dmaj11                          C
e|------0 ------- ------0 -------|------0 ------- ------- -------|
B|3---------------0h3------------|1------------------------------|
G|----------0---------------0----|------------0-------0-------0--|
D|----4-------4-------4-------4-\|----2-------2-------2-------2h0|
A|5-------5-------5-------5------|3-------3-------3-------3------|
E|-------------------------------|-------------------------------|

  G
e|------- ------3 ------- ------3|------- ------3 ------- -------|
B|----0------0--------0-------0--|----0-------0------------------|
G|----0------0--------0-------0--|----0-------0------------------|
D|----0------0--------0-------0--|----0-------0---------------0--|
A|--------0h2-------------0h2----|--------0h2---------0---2------|
E|3---------------3--------------|3---------------3--------------|

Verse:
  Dmaj11                          C
e||--------0 ------- ------0 -------|------0 ------- ------0 -------|
B||--3-----3-------3-------3--------|1-------------1----------------|
G||o---------------------------0----|------------0-------0-------0--|
D||o-----4-------4-------4-------4-\|----2-------2-------2-------2--|
A||--5-------5-------5-------5------|3-------3-------3-------3------|
E||---------------------------------|-------------------------------|
  1.               Jenny was gone      and the moon blooms all shin-
  2.               Jenny was gone      and I thought that I knew

  G
e|------- ------3 ------- ------3|------- ------3 ------- -------|
B|----0------0--------0-------0--|----0-------0-------0-------0--|
G|----0------0--------0-------0--|----0-------0-------0-------0--|
D|----0------0--------0-------0--|----0-------0-------0-------0--|
A|--------0h2-------------0h2----|--------0h2-------------0h2----|
E|3---------------3--------------|3---------------3--------------|
  -ing                                                     As we
   her                                                    And the
  Dmaj11                          C
e|------0 ------- ------0 -------|------0 ------- ------0 -------|
B|3-----3-------3-------3--------|1-------------1----------------|
G|--------------------------0----|------------0-------0-------0--|
D|----4-------4-------4-------4-\|----2-------2-------2-------2--|
A|5-------5-------5-------5------|3-------3-------3-------3------|
E|-------------------------------|-------------------------------|
dragged our panic up and down       sweating wild and weird in our
                     the riverbed                       Sunday clothes
wind came howling out of Virginia blue tick blowing the water out
                                                            its nose
                                   _____________________________
  G                               |1.
e|------- ------3 ------- ------3|------- ------3 ------- -------||
B|----0------0--------0-------0--|----0-------0-------0----------||
G|----0------0--------0-------0--|----0-------0-------0---------o||
D|----0------0--------0-------0--|----0-------0---------------0-o||
A|--------0h2-------------0h2----|--------0h2---------0---2------||
E|3---------------3--------------|3---------------3--------------||

  G______________________________
  |2.
e|------- ------3 ------- ------3|
B|----0------0--------0-------0--|
G|----0------0--------0-------0--|
D|----0------0--------0-------0--|
A|--------0h2-------------0h2----|
E|3---------------3--------------|


Bridge:
  Em                              C
e||--------- ------- ------- -------|------- ------0 ------- ------0|
B||------0---------------0----------|----1-------1-------1-------1--|
G||o-----0---------------0----------|----0-------0-------0-------0--|
D||o-----2------0h2------2-------0h2|----2---0h2---------2---0h2----|
A||----------0h2-------------0h2----|3---------------3--------------|
E||--0---------------0--------------|-------------------------------|
3.                   Jenny and me         in the front row and sing-
4.                   Jenny and me         on the hilltop and peek-
                                   
  G                               
e|------- ------3 ------- ------3|------- ------3 ------- -------|
B|----0------0--------0-------0--|----0-------0-------0----------|
G|----0------0--------0-------0--|----0-------0-------0----------|
D|----0------0--------0-------0--|----0-------0---------------0--|
A|--------0h2-------------0h2----|--------0h2---------0---2------|
E|3---------------3--------------|3---------------3--------------|
 -ing                                                    ‘bout how
 -ing                                                   at all their

  Dmaj11                          C
e|------0 ------- ------0 -------|------0 ------- ------0 -------|
B|3-----3-------3-------3--------|1-------------1----------------|
G|--------------------------0----|------------0-------0-------0--|
D|----4-------4-------4-------4-\|----2-------2-------2-------2--|
A|5-------5-------5-------5------|3-------3-------3-------3------|
E|-------------------------------|-------------------------------|
3. heaven calls the kingdom of     all and all revealed to us one day
                      the animals 
4. upturned bottles jumping        jaw harp teasing the brushfire
                    like leopards                          in its rage
                                   _____________________________
  G                               |1.
e|------- ------3 ------- ------3|------- ------3 ------- -------||
B|----0------0--------0-------0--|----0-------0-------0-------0--||
G|----0------0--------0-------0--|----0-------0-------0-------0-o||
D|----0------0--------0-------0--|----0-------0-------0-------0-o||
A|--------0h2-------------0h2----|--------0h2--------------------||
E|3---------------3--------------|3---------------3-------2------||

  G______________________________
  |2.
e|------- ------3 ------- ------3|
B|----0------0--------0-------0--|
G|----0------0--------0-------0--|
D|----0------0--------0-------0--|
A|--------0h2-------------0h2----|
E|3---------------3--------------|


Interlude:
  Dmaj11                          C
e|------5 ------- ------5 -------|------3 ------- ------3 -------|
B|3---------------0h3------------|1-------------1----------------|
G|----------0---------------0----|----0-------0-------0-------0--|
D|----4-------4-------4-------4-\|----2-------2-------2-------2h0|
A|5-------5-------5-------5------|3-------3-------3-------3------|
E|-------------------------------|-------------------------------|

  G
e|------- ------3 ------- ------3|------- ------3 ------- -------|
B|----0------0--------0-------0--|----0-------0------------------|
G|----0------0--------0-------0--|----0-------0------------------|
D|----0------0--------0-------0--|----0-------0---------------0--|
A|--------0h2-------------0h2----|--------0h2---------0---2------|
E|3---------------3--------------|3---------------3--------------|


Verse:
5. Jenny came back and the wet road still shining
   In our eyes an angel, clear and coronal, clothed in all that's                   
        prodigal and strange

6. Jenny came back and I thought that I heard her
   Murmur something ‘bout “No men in Virginia” spat on the ground like 
        a letter tossed away   


Bridge:
7. Jenny and me in my dead truck and turning over
   Just where heaven calls the kingdom of the animals scratching our 
        heads where the wolf would go to lay

Final Bridge:
  Em                              C
e|------- ------- ------- -------|------- ------0 ------- ------0|
B|----0---------------0----------|----1-------1-------1-------1--|
G|----0---------------0----------|----0-------0-------0-------0--|
D|----2------0h2------2-------0h2|----2---0h2---------2---0h2----|
A|--------0h2-------------0h2----|3---------------3--------------|
E|0---------------0--------------|-------------------------------|
8.                  Jenny and me      and the moon blooms were clos-

                                   
  G                               
e|------- ------3 ------- ------3|------- ------3 ------- -------|
B|----0------0--------0-------0--|----0-------0-------0----------|
G|----0------0--------0-------0--|----0-------0-------0----------|
D|----0------0--------0-------0--|----0-------0---------------0--|
A|--------0h2-------------0h2----|--------0h2---------0---2------|
E|3---------------3--------------|3---------------3--------------|
 -ing                                                  and both her
  
  Dmaj11                          C
   ______________________________________________________________       
  | rit.
e|------- ------- ------- -------|------- ------- ------- -------|
B|3------------------------------|1------------------------------|
G|0------------------------------|0------------------------------|
D|4------------------------------|2------------------------------|
A|5------------------------------|3------------------------------|
E|-------------------------------|-------------------------------|
8.wide-eyed brothers                dreaming the heat of the
           running like shepherds                     fields all in


  G (slow)
e|------- ------3 ------- ------3|------- ------- ------- ------||
B|----0------0--------0-------0--|----0-------------------------||
G|----0------0--------0-------0--|----0-----------0-------------||
D|----0------0--------0-------0--|----0-----------0-------------||
A|--------0h2-------------0h2----|--------0h2-0---2-------------||
E|3---------------3--------------|3---------------3-------------||
 flames
Добавлено: 15.04.2012
Другие материалы по этой песне:
  • Аккорды и текст

Страница создана 15.04.2012
http://primanota.ru/iron-and-wine/kingdom-of-the-animals-chords.htm
Привет, Гость.
Предлагаем пройти революционный курс по гитаре.
Подарок от PrimaNota.Ru, забирай!