PrimaNota.ru - самый крупный в мире бесплатный архив песенных текстов, аккордов, табулатур и нот


Iron & Wine - Innocent Bones Live - таба, видео

Регистрация Запомнить меня
Войти через:  Facebook Google Twitter Vk Yandex Mail.ru

Iron & Wine - Innocent Bones Live - таба, видео

Печатать
Просмотров: 146
Уроки эстрадного вокала в Санкт-Петербурге
song:    Innocent Bones
artist:  Iron and Wine
album:   Shepherd's Dog
tab by:  Sean Konagaya

Note: This is the tab for the live version.




=============================================
       By tuning your guitar. (facile)
=============================================

tuning:  raise your G to an A
capo:    3rd

VERSE
|---------------------------------------|
|----0-----0-----0-------0-----0-----0--|
|------0-----0-------------0-----0------|
|--------4-------------------4----------|
|--------------5-------------------5----|
|--3-------------------3----------------|

CHORUS
|---------------------------------------|
|----0-----0-----0-------0-----0-----0--|
|------0-----0-------------2-----0------|
|--------5-------------0-----7-----7----|
|--3-----------3------------------------|
|---------------------------------------|

ZE BREAK DOWN
|---------------------------------------|
|----0-----0-----0-------0-----0-----0--|
|------0-----0-------------0-----0------|
|--------4-------------------4----------|
|--------------5-------------------5----|
|--0-------------------0----------------|
and then it goes like...
|---------------------------------------|
|----0-----0-----0-------0-----0-----0--|
|------0-----0-------------0-----0------|
|--------4-------------------4----------|
|--------------5-------------------5----|
|--3-------------------3----------------|




=============================================
   Without tuning your guitar. (difficile)
=============================================

tuning:  Standard
capo:    3rd

VERSE
|---------------------------------------|
|----0-----0-----0-------0-----0-----0--|
|------2-----2-------------2-----2------|
|--------4-------------------4----------|
|--------------5-------------------5----|
|--3-------------------3----------------|

CHORUS
|---------------------------------------|
|----0-----0-----0-------0-----0-----0--|
|------2-----2-------------2-----2------|
|--------5-------------0-----7*----7*---|
|--3-----------3------------------------|
|---------------------------------------|
*-if i can do it, you can do it.

ZE BREAK DOWN
|---------------------------------------|
|----0-----0-----0-------0-----0-----0--|
|------2-----2-------------2-----2------|
|--------4-------------------4----------|
|--------------5-------------------5----|
|--0-------------------0----------------|
and then it goes like...
|---------------------------------------|
|----0-----0-----0-------0-----0-----0--|
|------2-----2-------------2-----2------|
|--------4-------------------4----------|
|--------------5-------------------5----|
|--3-------------------3----------------|

Author's Note: you should learn how to tune a guitar.
Добавлено: 14.06.2012
Другие материалы по этой песне:
  • Аккорды и текст

Страница создана 14.06.2012
http://primanota.ru/iron-and-wine/innocent-bones-live-chords.htm
Привет, Гость.
Предлагаем пройти революционный курс по гитаре.
Подарок от PrimaNota.Ru, забирай!