PrimaNota.ru - самый крупный в мире бесплатный архив песенных текстов, аккордов, табулатур и нот


Iron & Wine - Gray Stables - аккорды и текст, видео

Регистрация Запомнить меня
Войти через:  Facebook Google Twitter Vk Yandex Mail.ru

Iron & Wine - Gray Stables - аккорды и текст, видео

Печатать
Просмотров: 104
Gray Stables
Iron & Wine
-------------------------------------------------------------------------------
			     IRON & WINE - Gray Stables
-------------------------------------------------------------------------------
Tabbed by: Jamie Chalmers
Email: jamiechalmers@live.co.uk

Tuning: Standard (No capo)


Hey guys, first tab so hope you like it. Couldn't believe there was nothing here
its such a great song. Some of the lyrics may be wrong. Also, listening to the picked 
in
song, I have a feeling he may use a capo and play different chords shapes - not entirely 
But these chords work great for playing along or playing the song yourself :)

Chords used:

Am - x02210
G  - 35500x
F  - 13300x

Am
Gray lady, I could see you through the mosses
			G
laid, shameless in the sun
Am
my lady with her porcelain and her weightless
		     G
face, pleasing everyone

F	G		Am
gray stables and the horses of the righteous
F	G	     Am
pray daily for the brave

Am
lady, you were gorgeous in your weakness
		     G
wet flowers on the ground
Am
my lady never told me of her sadness
			G
bones floating in the sound

Instrumental:

     F      G               F      G
e|----------------------|-----------------------|
b|----------------------|-----------------------|
g|-7s9--7-9s10-9-7s5----|-7s9--7-9s10-9-7s5-----|
d|----------------------|-------------------5s7-|
a|----------------------|-----------------------|
e|-------------------x2-|-----------------------|

Am
gray lady could you see me in the darkness
			G
wait, nameless like a stone
Am
my lady with her watches by the mattress
		    G
bathes lately all alone

F	G		Am
gray stables and the horses of the righteous
F	G	     Am
pray daily for the brave

Am
lady, would you love me if i left her
			G
laid breathless in the sun
Am
my lady, like a teacup on the counter
		   G
frail, pleasing everyone

Instrumental:

     F      G               F      G
e|----------------------|-----------------------|
b|----------------------|-----------------------|
g|-7s9--7-9s10-9-7s5----|-7s9--7-9s10-9-7s5-----|
d|----------------------|-------------------5s7-|
a|----------------------|-----------------------|
e|-------------------x2-|-----------------------|

Finish on Am

************************************

 s = slide

************************************
Добавлено: 15.04.2012
Другие материалы по этой песне:
  • Аккорды и текст

Страница создана 15.04.2012
http://primanota.ru/iron-and-wine/gray-stables-chords.htm
Привет, Гость.
Предлагаем пройти революционный курс по гитаре.
Подарок от PrimaNota.Ru, забирай!