PrimaNota.ru - самый крупный в мире бесплатный архив песенных текстов, аккордов, табулатур и нот


Iron & Wine - Beyond The Fence - аккорды и текст, видео

Регистрация Запомнить меня
Войти через:  Facebook Google Twitter Vk Yandex Mail.ru

Iron & Wine - Beyond The Fence - аккорды и текст, видео

Печатать
Просмотров: 114
Beyond The Fence
Iron & Wine
-------------------------------------------------------------------------------
                             SONG NAME - Band Name
-------------------------------------------------------------------------------
These are just the basic notes of the song, you can listen to it and figure out how he's 
and strumming. There's also the little 0-2 hammer-ons he always does on the D string 
Pretty simple stuff.

Tuning:
   Am   B             F       C              G
e|--------------------1----------------------3-------------------------------|
B|-1----1-------------1-------1------1-------0-------------------------------|
G|-2----0-------------2-------0-----0--------0-------------------------------|
D|-2----0-------------3-------2--0-2---------0-------------------------------|
A|-0----2----3--------3-------3--------------2-------------------------------|
E|--------------0--3--1----------------------3-------------------------------|
Chorus
     C    F   C   G
e|--------1-------3----------------------------------------------------------|
B|---1----1---1---0----------------------------------------------------------|
G|---0----2---0---0----------------------------------------------------------|
D|---2----3---2---0----------------------------------------------------------|
A|---3----3---3---2----------------------------------------------------------|
E|--------1-------3----------------------------------------------------------|
Добавлено: 18.07.2012
Другие материалы по этой песне:
  • Аккорды и текст

Страница создана 18.07.2012
http://primanota.ru/iron-and-wine/beyond-the-fence-chords.htm
Привет, Гость.
Предлагаем пройти революционный курс по гитаре.
Подарок от PrimaNota.Ru, забирай!