PrimaNota.ru - самый крупный в мире бесплатный архив песенных текстов, аккордов, табулатур и нот


Irish Rovers - The Dublin Pub Crawl - аккорды и текст, видео

Регистрация Запомнить меня
Войти через:  Facebook Google Twitter Vk Yandex Mail.ru

Irish Rovers - The Dublin Pub Crawl - аккорды и текст, видео

Печатать
Просмотров: 148
The Dublin Pub Crawl
Irish Rovers
SONG:   THE DUBLIN PUB CRAWL
ARTIST: THE IRISH ROVERS
TAB BY: DON CZARSKI
EMAIL:  GUITARZAN7@HOTMAIL.COM


                    THE DUBLIN PUB CRAWL
                      THE IRISH ROVERS


INTRO: G  C    G D G 

VERSE:
G                  C                  G            D
We all went in to Kitty McGee's for we're a jolly crew
    G              C                G       D       G
We all went in to Kitty McGee's to have a drink or two
  G                C            G       
Kitty McGee's, in Dublin town upon the crawl
   D                  G           C     G        D                G
A hell of a time was had by all, down where the beer and whiskey flew


VERSE:
G                 C                 G             D
We all went in O'Hegarty's pub for we're a jolly three
    G              C                G       D       G
We all went in O'Hegarty's just to have a drink or two
  G                             C            G       
O'Hegarty's, Kitty McGee's, in Dublin town upon the crawl
   D                  G           C     G        D                G
A hell of a time was had by all, down where the beer and whiskey flew


VERSE:
G                 C                G            D
We all went in O'Leary's pub for we're a jolly crew
    G             C               G       D       G
We all went in O'Leary's just to have a drink or two
    G                                      C            G
O'Leary's, O'Hegarty's, Kitty McGee's, in Dublin town upon the crawl
   D                  G           C     G        D                G
A hell of a time was had by all, down where the beer and whiskey flew


VERSE:
G                C                  G            D
We all went in McCleary's pub for we're a jolly crew
    G            C                 G       D       G
We all went in McCleary's just to have a drink or two
    G                                                           
McCleary's, O'Leary's, O'Hegarty's, Kitty McGee's, 
    C            G
in Dublin town upon the crawl
   D                  G           C     G        D                G
A hell of a time was had by all, down where the beer and whiskey flew


VERSE:
G                C                   G            D
We all went in McQuillan's pub for we're a jolly crew
    G            C                  G       D       G
We all went in McQuillan's just to have a drink or two
    G                                                                     
McQuillan's, McCleary's, O'Leary's, O'Hegarty's, Kitty McGee's,
    C            G 
In Dublin town upon the crawl 
   D                  G           C     G        D                G
A hell of a time was had by all, down where the beer and whiskey flew


VERSE:
G                   C                G            D
We all went in to Dillon's pub for we're a jolly crew
    G               C               G       D       G
We all went in to Dillon's just to have a drink or two
  G
Dillon's, McQuillan's, McCleary's, O'Leary's, O'Hegarty's, Kitty McGee's,
    C            G
In Dublin town upon the crawl 
   D                  G           C     G        D                G
A hell of a time was had by all, down where the beer and whiskey flew


                     *** CHANGE OF KEY ***

VERSE:
A                  D                   A            E
We all went in to Cafferty's pub for we're a jolly crew
    A              D                  A       E       A
We all went in to Cafferty's just to have a drink or two
 A
Cafferty's, Dillon's, McQuillan's, McCleary's, O'Leary's,
                               D            A
O'Hegarty's, Kitty McGee's,in Dublin town upon the crawl 
   E                  A           D     A        E                A
A hell of a time was had by all, down where the beer and whiskey flew


VERSE:
A                  D                   A            E
We all went in to Rafferty's pub for we're a jolly crew
    A              D                  A       E       A
We all went in to Rafferty's just to have a drink or two
 A
Rafferty's, Cafferty's, Dillon's, McQuillan's, McCleary's, O'Leary's,
                                D            A
O'Hegarty's, Kitty McGee's, in Dublin town upon the crawl 
   E                  A           D     A        E                A
A hell of a time was had by all, down where the beer and whiskey flew


VERSE:
A                  D                   A            E
We all went in to Gilligan's pub for we're a jolly crew
    A              D                  A       E       A
We all went in to Gilligan's just to have a drink or two
 A
Gilligan's, Rafferty's, Cafferty's, Dillon's, McQuillan's,

McCleary's, O'Leary's, O'Hegarty's, Kitty McGee's,
    D            A
In Dublin town upon the crawl 
   E                  A           D     A        E                A
A hell of a time was had by all, down where the beer and whiskey flew


VERSE:
A                  D                   A            E
We all went in to Milligan's pub for we're a jolly crew
    A              D                  A       E       A
We all went in to Milligan's just to have a drink or two
 A
Milligan's, Gilligan's, Rafferty's, Cafferty's, Dillon's, McQuillan's,
                                                       
McCleary's, O'Leary's, O'Hegarty's, Kitty McGee's,
    D            A
In Dublin town upon the crawl
   E                  A           D     A        E                A
A hell of a time was had by all, down where the beer and whiskey flew


VERSE:
A                  D                   A            E
We all went in to Flannigan's pub for we're a jolly crew
    A               D                  A       E       A
We all went in to Flannigan's just to have a drink or two 
  A
Flannigan's, Milligan's, Gilligan's, Rafferty's, Cafferty's,

Dillon's, McQuillan's, McCleary's, O'Leary's, O'Hegarty's, Kitty McGee's,
    D            A
In Dublin town upon the crawl
   E                  A           D     A        E                A
a hell of a time was had by all, down where the beer and whiskey flew


VERSE:
A                  D                   A            E
We all went in to Lannigan's pub for we're a jolly crew
    A              D                A      E       A
We all went in to Lannigan's for a final drink or two
 A
Lannigan's, Flannigan's, Milligan's, Gilligan's, Rafferty's, Cafferty's,
 
Dillon's, McQuillan's, McCleary's, O'Leary's, O'Hegarty's, Kitty McGee's,
    D            A
In Dublin town upon the crawl
   E                  A           D     A        E                A
a hell of a time was had by all, down where the beer and whiskey flew

    ************ Now play the IRISH WASHERWOMAN song ************

     Intro bar

E|------------------|
B|------------5--3--|
G|------------------|
D|------------------|
A|------------------|
E|------------------|
                                                           

A        A         A        A         Bm       Bm        Bm       D
------------------|------------------|------------------|---------2--------|
2-----------------|2-----2--5--3--2--|3-----------------|3--2--3-----5--3--|
---2--2-----2--2--|---2--------------|---4--4-----4--4--|------------------|
---------2--------|------------------|---------4--------|------------------|
------------------|------------------|------------------|------------------|
------------------|------------------|------------------|------------------|
 
                                                          
G        G         G        G         C        D         G        G    *
------------------|------------------|------------------|------------------|
2-----------------|2-----2--5--3--2--|3--2--3-----5--3--|2-------------10--|
---2--2-----2--2--|---2--------------|---------4--------|---2--2--2--------|
---------2--------|------------------|------------------|------------------|
------------------|------------------|------------------|------------------|
------------------|------------------|------------------|------------------|
 
  
PART 2:  

A     A               A       A          E        E  
---------------------|--------9---------|------------------|
10----10--10-----10--|10---10----12-10--|9-----9--9-----9--|
---9----------9------|---9--------------|---9--------9-----|
---------------------|------------------|------------------|
---------------------|------------------|------------------|
---------------------|------------------|------------------|


 F#m       E         D          A
|-------------------|-----------------------|-----------------------|
|9-----9--12-10--9--|---10--10-----10--10---|---10--10-----10--10---|
|---9---------------|11---------9-----------|-----------------------|
|-------------------|-----------------------|12---------11----------|
|-------------------|-----------------------|-----------------------|
|-------------------|-----------------------|-----------------------|


 D         E         A
|-------------------|-------------------|
|-------------------|-------------------|
|-------------9-----|----2--2--2--------|
|12-11--12-9-----12-|11-----------------|
|-------------------|-------------------|
|-------------------|-------------------|

Добавлено: 09.08.2015
Вам также может быть интересно:
Другие материалы по этой песне:
  • Аккорды и текст

Страница создана 09.08.2015
http://primanota.ru/irish-rovers/dublin-pub-crawl-chords.htm
Привет, Гость.
Предлагаем пройти революционный курс по гитаре.
Подарок от PrimaNota.Ru, забирай!