PrimaNota.ru - самый крупный в мире бесплатный архив песенных текстов, аккордов, табулатур и нот


Iris - Atira-te Ao Mar - таба, видео

Регистрация Запомнить меня
Войти через:  Facebook Google Twitter Vk Yandex Mail.ru

Iris - Atira-te Ao Mar - таба, видео

Печатать
Просмотров: 137
Ora aqui vai mais uma tablatura dos Íris...  =P

Tal como a outra também tirei de ouvido os solos e portanto se descobrirem alguma
coisa que possa ser melhorada façam comentários ou enviem-me um mail...

-----------------------
| Íris - Atirat'ó Mar |
-----------------------

*************************************************************
Legenda:

/ - slide para a frente
\ - slide para trás
~ - vibrato (deixar soar)
s - slide
b - bend
r - release

*************************************************************

Acordes usados (para a guitarra acústica):
G  - 320033
D  - x00232
C  - x32010
Am - 002210
---------------------------------------------------------------
Acordes de quinta correspondentes (para a guitarra eléctrica):
G5 - 355xxx
D5 - x577xx
C5 - x355xx
A5 - 577xxx
----------------------------------------------------------------



Acompanhamento para o solo de introdução na guitarra acústica:

   G	     D	       C			  G	     D		C

Solo de Introdução na guitarra eléctrica:

e----------------------------------------12-14-15--------------------------------|
B--------------------------------13--15------------------------------------------|
G------------7~-7-9/11-9~------------------------------------7~-7-9/11-12~~\0----|
D--5~--5-7s9----------------12/14--14--14---------5~--5-7/9----------------------|
A--------------------------------------------------------------------------------|
E--------------------------------------------------------------------------------|

NOTA: 	OS ACORDES DE ACOMPANHAMENTO DO SOLO DE INTRODUÇÃO ESTÃO PRECISAMENTE
	ALINHADOS COM AS NOTAS DO SOLO xD


	Verso 1:

	G	D
	Mó

			Am
	Qué que fazes aki

      G		   D		      C
	Má pké que tu me deixaste da mão

      G		D		   Am
	Já tou farto de pensar em ti

      G		    D		  D
	Tens 'ma mania ca 'té dá dó

	Refrão(2x):

      G		 D		      C
	Atirat'ó mar e diz que t 'emperrarem (2x)

      G		     D			C
	Beija-me da boca e chama-me Tarzan (2x)

NOTA: 	OS ACORDES PARA A GUITARRA ELÉCTRICA NO REFRÃO SÃO OS ACORDES DE  QUINTA 
AOS DA ACUSTICA xD

	Verso 2:

	G	D
	Mó

			    Am
	Tá o mar feito num cão

      G		D	    C
	Na há chok nem bargigão

      G		D	      Am
	Até nem sou mau pescador

      G		  D		  C
	Mai tu só queres éi um cantor


	Refrão(2x)

Antes do solo principal (ao mesmo tempo que as cornetas):

E5 (mi de quinta) com algumas variações mais ou menos aleatórias...
(improvisem =P, copiar e feio! loool)


NOTA:	OS ACORDES DE ACOMPANHAMENTO PARA O SOLO PRINCIPAL NA GUITARRA ACUSTICA SÃO OS 
DO REFRÃO xD


Solo principal da guitarra elétrica:

e---------------------------------------------------------------------10-------------|
B--10b12~~--b12-b12-12b~--b12-b12-b12~r10--8h10p8-----8---8~---8-10b12---10b12r10-8--|
G--------------------------------------------------/9---9----9-----------------------|
D------------------------------------------------------------------------------------|
A------------------------------------------------------------------------------------|
E------------------------------------------------------------------------------------|


-------------------------------------------------------7-8-10-10~--------------------|
-10p8---8---------------------------------------7-8-10-------------10/12-10-8-10-10~-|
------9---9-7-5-4-5~--4h5p4-----------------7-9--------------------------------------|
----------------------------7-5~------7-9-10-----------------------------------------|
-----------------------------------10------------------------------------------------|
-------------------------------------------------------------------------------------|

------------------------------------12-----------------------------------------------|
-12-12h13-12-12h13~--------12-13-15----15-15b17~---15-13-12~--13-12h13p12\10----10-8-|
---------------------12-14--------------------------------------------------12-------|
-------------------------------------------------------------------------------------|
-------------------------------------------------------------------------------------|
-------------------------------------------------------------------------------------|

-------------------------------------------------|
--7-8--7h8p7\5-7-8-8~--7h8-7-5-------------------|
-------------------------------7-5\4-5p4---------|
-----------------------------------------5-5~----|
-------------------------------------------------|
-------------------------------------------------|


Depois são também os mesmos acordes do refrão até acabar a música...
Porém há uma altura em que o ritmo muda ligeiramente =P

Ah! E já agora também voçês podiam dar uma ajudinha e faziam umas quantas tablaturas
dos íris também porque as únicas tablaturas completas de íris que eu já vi na net
são as minhas...loOl

E mais uma vez esta é dedicada ao PEOPLE DO FAROL e ás nossas guitarradas na praia =P

Viva a música na praia e o DON SIMON!!!! loool
Добавлено: 29.03.2012
Другие материалы по этой песне:
  • Аккорды и текст

Страница создана 29.03.2012
http://primanota.ru/iris/atira-te-ao-mar-chords.htm
Привет, Гость.
Предлагаем пройти революционный курс по гитаре.
Подарок от PrimaNota.Ru, забирай!