PrimaNota.ru - самый крупный в мире бесплатный архив песенных текстов, аккордов, табулатур и нот


Irepress - Nonografistole Adendum - таба, видео

Регистрация Запомнить меня
Войти через:  Facebook Google Twitter Vk Yandex Mail.ru

Irepress - Nonografistole Adendum - таба, видео

Печатать
Просмотров: 66
------------------------------------------------------------------------------------------
                 Irepress - Nonografistole Adendum (Trampled to Death by Love)
------------------------------------------------------------------------------------------
Tabbed by: habrosguitar
E-mail: habrosguitar@gmail.com

Tuning: Drop C (C G C F A D)


Since there are STILL NO TABS for Irepress out there, I finally sat down and wrote one.
An accurate one too! Try listening to the song or watch my youtube video if you're having trouble.


If you have questions or something doesn't seem right, email me at the address 
above^ or comment on my youtube playthrough.

Youtube: http://www.youtube.com/watch?v=ad6xAGTWTSs&feature=plcp
 

Official Irepress pages: 
http://www.myspace.com/irepress#!
https://www.facebook.com/Irepress

0:00

D|---------------------------------------------------------------------------|
A|---17-15-14-----------17-15-14---------17-15-14-------17~----/19-19-19-----|
F|-----------16-----------------16~--------------16--------------------------|
C|-14-------------16-14----------------------------16-14---------------------|
G|---------------------------------------------------------------------------|
C|---------------------------------------------------------------------------|

D|---------------------------------------------19*-----------17--------------|
A|---17-15-14-------------17-15-14-------------19*-----------19--------------|
F|-----------16-------------------16~----------------------------------------|
C|-14-------------16-14~-----------------------------------------------------|
G|---------------------------------------------------------------------------|
C|---------------------------------------------------------------------------|

D|-------------------|
A|---------10--------|
F|------13----13-----|
C|---11----------11--|
G|-9-----------------|
C|-------------------|


0:17 Listen for the timing

D|---------------------------------------------------------------------------|
A|-7---7---9---10-----7----7-9-10---7--------7----7--9---10---7----7-9-------|
F|---9---9---9----------9-9-------9---9-----9--9-9--9--9--------9-9----------|
C|---------------------------------------------------------------------------|
G|---------------------------------------------------------------------------|
C|---------------------------------------------------------------------------|

D|-21---17--------17------17------17---21---17------17-----21---17------17------21------21-21~~---|
A|----17---21---17---17-21---17-21--------17---21-17---21-----17---21-17---17-21---17-21----------|
F|------------------------------------------------------------------------------------------------|
C|------------------------------------------------------------------------------------------------|
G|------------------------------------------------------------------------------------------------|
C|------------------------------------------------------------------------------------------------|

D|-----------------|
A|-----------------|
F|-----13----------|
C|--11----11~~~~---|
G|-----------------|
C|-----------------|

-Left Guitar:
| D|-17----17----19----21---17------17-19-21----17--------|
| A|----21----21----21---------21-21---------21----21-----| X 3
| F|------------------------------------------------------|
| C|------------------------------------------------------|
| G|------------------------------------------------------|
| C|------------------------------------------------------|
|
|
| D|-17----17----19----21~~~~-------------------------------------------------|
| A|----21----21----21--------------------------------------------------------|
| F|--------------------------------------------------------------------------|
| C|--------------------------------------------------------------------------|
| G|--------------------------------------------------------------------------|
- C|--------------------------------------------------------------------------|

-Right Guitar:
| D|------------------12-10-9-----------------------------------------17--21~--|
| A|--------------------------12~------------------------------14--------------|
| F|---------------------------------------------------------------------------|
| C|---------------------------------------------------------------------------|
| G|---------------------------------------------------------------------------|
| C|---------------------------------------------------------------------------|
|
| D|-----17-17-/19-17-16--------------12-10-9------------12-10-9---------------|
| A|---------------------17-/19-19~------------12----------------12------------|
| F|---------------------------------------------------------------------------|
| C|---------------------------------------------------------------------------|
| G|---------------------------------------------------------------------------|
| C|---------------------------------------------------------------------------|
|
|
| D|-------------|
| A|-------------|
| F|---11~~------|
| C|---11~~------|
| G|-------------|
- C|-------------|


0:47

D|-------12------10---9-9b10--7-/9-9-------------------------5h9p5-----------|
A|----10-------7--------------------------5----7----3----2---------9---------|
F|-11--------7-------------------------------------------------------6-------|-
C|---------------------------------------------------------------------------| |
G|---------------------------------------------------------------------------| |
C|---------------------------------------------------------------------------| |

D|-------12------10---9-9b10--7-/9-9----------------12b14-141414141414141414-| | X 2
A|----10-------7--------------------------9----10----------------------------| |
F|-11--------7---------------------------------------------------------------| |
C|---------------------------------------------------------------------------| |
G|---------------------------------------------------------------------------|-
C|---------------------------------------------------------------------------|

D|-14p12h14--12----------14p12h14----12-14----14-14p12---------14p12h14----12-14-----|
A|--------------10-10-------------10-------------------10-10------------10-----------|
F|-----------------------------------------------------------------------------------|
C|-----------------------------------------------------------------------------------|
G|-----------------------------------------------------------------------------------|
C|-----------------------------------------------------------------------------------|

D|-14-14p12----------14p12h14----12-14----14-14p12----------14p12h14----12-14--------|
A|----------10-10-------------10-------------------10-10-------------10--------------|
F|-----------------------------------------------------------------------------------|
C|-----------------------------------------------------------------------------------|
G|-----------------------------------------------------------------------------------|
C|-----------------------------------------------------------------------------------|

D|-------------------|
A|-------------------| 
F|------13----13-----| 
C|---11----11--------| 
G|-9-----------------| 
C|-------------------| 

Distortion (I put T's for when you strum the triplets)

D|--------------5h9p5-----------------------------------10h14p10-------------|
A|---10---------------9---------------------10-------------------14~---------|
F|------13--------------6-------13----13-------13----------------------------|
C|---------11----------------11----11-------------11-------------------------|
G|-0-----------------------9--------------0----------------------------------|
C|-0--------------------------------------0----------------------------------|

D|-------------------------------------------------------------------------------------|
A|-------------------------------------------------------------------------------------|
F|-13-1313-13131313--13~-----13-1313-13131313-1313-13131313--14~---13-1313-13131313-13-|
C|-11-1111-11111111--11~-----11-1111-11111111-1111-11111111--11~---11-1111-11111111-11-|
G|-9--9-9--9-9-9-9---9-~-----9--9-9 -9-9-9-9--9-9--9-9-9-9---12~---9--9-9--9-9-9-9--9--|
C|-------------------------------------------------------------------------------------|

D|------------------------------------T--T--T-------------------------------------------|
A|--------------------------------------------------------------------------------------|
F|-13-1313-13131313----13-1313-131313-13-13-13--13-1313-13131313----13-1313-13131313-13-|
C|-11-1111-11111111----11-1111-111111-11-11-11--11-1111-11111111----11-1111-11111111-11-|
G|-9--9-9--9-9-9-9-----9--9-9--9-9-9--9--9--9---9--9-9--9-9-9-9-----9--9-9--9-9-9-9--9--|
C|--------------------------------------------------------------------------------------|

D|------------------------------------T---T---T---------------|
A|------------------------------------------------------------|
F|-11------11-----11----11----1111----11--11--11--11----------|
C|-11------11-----11----11----1111----11--11--11--11----------|
G|-0----------0-0-0-----0-----0-0-----0---0---0---0-----------|
C|-0----------0-0-0-----0---0-0-0---0-0---0---0---0-----------|

D|-------------------|
A|-------------------| 
F|------13----13-----| 
C|---11----11--------| 
G|-9-----------------| 
C|-------------------| 

D|--------------5h9p5-----------------------------------/14-10-----------------|
A|---10---------------9---------------------10---------------------------------|
F|------13--------------6-------13----13-------13------------------------------|
C|---------11----------------11----11-------------11---------------------------|
G|-0-----------------------9--------------0------------------------------------|
C|-0--------------------------------------0------------------------------------|

                        | Clean                 
D|----------------------|-----------------------------------------------------|
A|----------------------|-----------------------------------------------------|
F|-13-1313-13131313-----|-13~------13-1313-13131313---------------------------|
C|-11-1111-11111111-----|-11~------11-1111-11111111---------------------------|
G|-9--9-9--9-9-9-9------|-9~-------9--9-9--9-9-9-9----------------------------|
C|----------------------|-----------------------------------------------------|

D|---------------------------------------------------------------------------|
A|---------------------------------------------------------------------------|
F|-14~-------14-1414-14141414-14---------------------------------------------|
C|-11~-------11-1111-11111111-11---------------------------------------------|
G|-12~-------12-1212-12121212-12---------------------------------------------|
C|---------------------------------------------------------------------------|

D|------------------------------------T--T--T-------------------------------------------|
A|--------------------------------------------------------------------------------------|
F|-13-1313-13131313----13-1313-131313-13-13-13--13-1313-13131313----13-1313-13131313-13-|
C|-11-1111-11111111----11-1111-111111-11-11-11--11-1111-11111111----11-1111-11111111-11-|
G|-9--9-9--9-9-9-9-----9--9-9--9-9-9--9--9--9---9--9-9--9-9-9-9-----9--9-9--9-9-9-9--9--|
C|--------------------------------------------------------------------------------------|

D|-----------------------------------------------------T--T--T--------------|
A|--------------------------------------------------------------------------|
F|-11--------11---11------11-----11--11---1111-11-11---11-11-11--11---------|
C|-11--------11---11------11--------------1111-11-11---11-11-11--11---------|
G|-0--------------0----------0-0-0---0----0-0--0--0----0--0--0---0----------|
C|-0--------------0----------0-0-0---0----0-0--0--0----0--0--0---0----------|

D|-T--T--T---------T--T--T---------T--T--T---------T--T--T-------------------|
A|---------------------------------------------------------------------------|
F|-9--9--9--9------9--9--9--9------9--9--9--9------9--9--9--9----------------|
C|-5--5--5--5------5--5--5--5------5--5--5--5------5--5--5--5----------------|
G|-0--0--0--0------0--0--0--0------0--0--0--0------0--0--0--0--0-------------|
C|-0--0--0--0------0--0--0--0--0-0-0--0--0--0------0--0--0--0--0-------------|


2:34 Trumpet Solo 

Okay, I'm just gonna take a sec to explain how this part goes so it makes more sense.
It starts with these strums:

Right Guitar
D|------------------------------|
A|------------------------------|
F|--5-----5-----5-----5-----5---| . . . .
C|--5-----5-----5-----5-----5---|
G|------------------------------|
C|------------------------------|

Everytime you hear the bass drum kick (except for the first time),
the Left Guitar will alternate between two things:

1.)
D|--(15)---15---15---15---13---13---13---13---15---15---15---15---15---13---13---13--|
A|--(13)---13---13---13---13---13---13---13---13---13---13---13---13---13---13---13--|
F|-----------------------------------------------------------------------------------|
C|-----------------------------------------------------------------------------------|
G|-----------------------------------------------------------------------------------|
C|-----------------------------------------------------------------------------------|

And

2.)
D|--(15)---15---15---15---15---13---13---13---15---15---15---15---15---13---13---13--|
A|--(13)---13---13---13---13---13---13---13---13---13---13---13---13---13---13---13--|
F|-----------------------------------------------------------------------------------|
C|-----------------------------------------------------------------------------------|
G|-----------------------------------------------------------------------------------|
C|-----------------------------------------------------------------------------------|

What follows next on the left guitar side after either of the above is VERY hard to hear,
but I think it's something like this: (Calling this portion "C")

"C"
   .    .    .    .    .    .    .    .    .    .    .    .    .    .    .    .
D|--------------------------------------------------------------------------------|
A|--------------------------------------------------------------------------------|
F|----------------7--/9---9-------7--/9----9~--------7--/9---9--------7-/9----9---|
C|----------------5--/7---7-------5--/7----7~--------5--/7---7--------5-/7----7---|
G|-0----0----0---------0-----0-0----------------0---------0------0-0--------------|
C|--------------------------------------------------------------------------------|

The right guitar continues to do this the whole time:

D|------------------------------|
A|------------------------------|
F|--5-----5-----5-----5-----5---| . . . .
C|--5-----5-----5-----5-----5---|
G|------------------------------|
C|------------------------------|

So the pattern for the left guitar should go 1), C, 2), C, 1), C, 2)



3:49

Left Guitar
D|-----------------------------------------------------------------------------|
A|-----------------------------------------------------------------------------|
F|----------5---5---5---5---5---5---5---5---5---5---5---5---5---5--------------|
C|----------5---5---5---5---5---5---5---5---5---5---5---5---5---5--------------|
G|-----0----3---3---3---3---3---3---3---3---3---3---3---3---3---3--------------|
C|-5p0-0-----------------------------------------------------------------------|

Right Guitar
D|-----------------------------------------------------------------------------|
A|-----------------------------------------------------------------------------|
F|----------9---7--/9---9---9---7--/9---9---9---7--/9---9---9---7--/9---9------|
C|----------7---5--/7---7---7---5--/7---7---7---5--/7---7---7---5--/7---7------|
G|-----0------0-------0---0---0-------0---0---0-------0---0---0-------0---0----|
C|-5p0-0-----------------------------------------------------------------------|


Both
D|---------------------------------------------------------------------------|
A|---------------------------------------------------------------------------|
F|-5---5---5---5---5---5---5---5---4---4---4---4---5---5---5---5-------------|
C|-----5---5---5---5---5---5---5---5---5---5---5---5---5---5---5-------------|
G|-----3---3---3---3---3---3---3---3---3---3---3---3---3---3---3-------------|
C|---0-----------------------------------------------------------------------|


Left
D|---------------------------------------------------------------------------|
A|---------------------------------------------------------------------------|
F|-----5---5---5---5---5---5---5---5---5---5---5---5---5---5---5-------------|
C|-----5---5---5---5---5---5---5---5---5---5---5---5---5---5---5-------------|
G|-----3---3---3---3---3---3---3---3---3---3---3---3---3---3---3-------------|
C|-5p0-----------------------------------------------------------------------|

Right
D|-15--------------------------------------------------------------------------|
A|---13------------------------------------------------------------------------|
F|------9---9---7--/9---9---9---7--/9---9---9---7--/9---9---9---7--/9---9------|
C|------7---7---5--/7---7---7---5--/7---7---7---5--/7---7---7---5--/7---7------|
G|--------0---0-------0---0---0-------0---0---0-------0---0---0-------0---0----|
C|-----------------------------------------------------------------------------|

Both
D|---------------------------------------------------------------------------|
A|---------------------------------------------------------------------------|
F|-10--5---5---5---5---5---5---5---4---4---4---4---5---5---5---5-------------|
C|-----5---5---5---5---5---5---5---5---5---5---5---5---5---5---5-------------|
G|-----3---3---3---3---3---3---3---3---3---3---3---3---3---3---3-------------|
C|---0-----------------------------------------------------------------------|

Left
D|---------------------------------------------------------------------------------|
A|---------------------------------------------------------------------------------|
F|-----9-10-10-10-9-10-9-10-10-9-10-9-9-10-9-10-10-9-10-9-9-10-9-10-10-9-10-9-9-10-|
C|---------------------------------------------------------------------------------|
G|---------------------------------------------------------------------------------|
C|-5p0-----------------------------------------------------------------------------|

Right
D|-15--------------------------------------------------------------------------|
A|---13------------------------------------------------------------------------|
F|------9---9---7--/9---9---9---7--/9---9---9---7--/9---9---9---7--/9---9------|
C|------7---7---5--/7---7---7---5--/7---7---7---5--/7---7---7---5--/7---7------|
G|--------0---0-------0---0---0-------0---0---0-------0---0---0-------0---0----|
C|-----------------------------------------------------------------------------|

Both
D|---------------------------------------------------------------------------|
A|---------------------------------------------------------------------------|
F|-10--5---5---5---5---5---5---5---4---4---4---4---5---5---5---5-------------|
C|-----5---5---5---5---5---5---5---5---5---5---5---5---5---5---5-------------|
G|-----3---3---3---3---3---3---3---3---3---3---3---3---3---3---3-------------|
C|---0-----------------------------------------------------------------------|

4:36

Clean
D|--------------------|
A|-5------------------|
F|---0---5-4----------| X 8
C|-----------5--------|
G|-----7-------0------|
C|--------------------|

D|--------------------|
A|---------3-/5-------|
F|--------------------|
C|-2-5-2--------------|
G|-------3------------|
C|--------------------|

D|--------------------| 
A|-5------------------|
F|---0---5-4----------| X 8
C|-----------5--------|
G|-----7-------0------|
C|--------------------|

D|--------------------| 
A|---------3-/5-------|
F|--------------------|
C|-2-5-2--------------|
G|-------3------------|
C|--------------------|

Clean
D|--------------------| 
A|-5------------------|
F|---0---5-4----------| X 10
C|-----------5--------|
G|-----7-------0------|
C|--------------------|

D|--------------------------------|
A|---------3-/5---------3-/5------|
F|--------------------------------|
C|-2-5-2--------2-5-2-------------|
G|-------3------------3-----------|
C|--------------------------------|

D|-5-5---5------------5-5---5----------------5-5---5------------5-5---5----------------|
A|----------5-5---6------------5-5---6--8-------------5-5---6------------5-5---6--8----|
F|-------------------------------------------------------------------------------------|
C|-------------------------------------------------------------------------------------|
G|-------------------------------------------------------------------------------------|
C|-------------------------------------------------------------------------------------|

D|-5-5---5------------5-5---5----------------5-5---5------------5-5---5----------------|
A|----------5-5---6------------5-5---6--8-------------5-5---6------------5-5---6--8----|
F|-------------------------------------------------------------------------------------|
C|-------------------------------------------------------------------------------------|
G|-------------------------------------------------------------------------------------|
C|-------------------------------------------------------------------------------------|

5:42 Awesome Harmony

-Left Guitar:
| D|---------------------------------------------------------------------------|
| A|-5~~-----------------------------------------------------------------------|
| F|----------------2~~----------------5~~-------------------------------------|
| C|---------------------------------------------------------------------------|
| G|---------------------------------------------------------------------------|
| C|---------------------------------------------------------------------------|
| 
| D|-13~~-----------12~~---------------8~~-------------------------------------|
| A|---------------------------------------------------------------------------|
| F|---------------------------------------------------------------------------|
| C|---------------------------------------------------------------------------|
| G|---------------------------------------------------------------------------|
| C|---------------------------------------------------------------------------|
|
| D|---------------------------------------------------------------------------|
| A|-5~~-----------------------------------------------------------------------|
| F|----------------2~~----------------5~~-------------------------------------|
| C|---------------------------------------------------------------------------|
| G|---------------------------------------------------------------------------|
| C|---------------------------------------------------------------------------|
| 
| D|-13~~-----------12~~---------------8~~--8~~--------------------------------|
| A|---------------------------------------------------------------------------|
| F|---------------------------------------------------------------------------|
| C|---------------------------------------------------------------------------|
| G|---------------------------------------------------------------------------|
| C|---------------------------------------------------------------------------|
| 
| D|---------------------------------------------------------------------------|
| A|-5~~-----------------------------------------------------------------------|
| F|----------------2~~----------------5~~-------------------------------------|
| C|---------------------------------------------------------------------------|
| G|---------------------------------------------------------------------------|
| C|---------------------------------------------------------------------------|
| 
| D|-------------------~-------------------------------------------------------|
| A|---------------------------------------------------------------------------|
| F|-10~~-----------9~~----------------5~~-------------------------------------|
| C|---------------------------------------------------------------------------|
| G|---------------------------------------------------------------------------|
| C|---------------------------------------------------------------------------|
|
| D|---------------------------------------------------------------------------|
| A|-5~~-----------------------------------------------------------------------|
| F|----------------2~~----------------5~~-------------------------------------|
| C|---------------------------------------------------------------------------|
| G|---------------------------------------------------------------------------|
| C|---------------------------------------------------------------------------|
| 
| D|-13~~-----------12~~---------------8~~--8~~--------------------------------|
| A|---------------------------------------------------------------------------|
| F|---------------------------------------------------------------------------|
| C|---------------------------------------------------------------------------|
| G|---------------------------------------------------------------------------|
- C|---------------------------------------------------------------------------|


-Right Guitar:
| D|--------------------------------------------------------------------------|
| A|---------------(5)----------------5~~-------------------------------------|
| F|-5~~------------2~~--------------(5)--------------------------------------|
| C|--------------------------------------------------------------------------|
| G|--------------------------------------------------------------------------|
| C|--------------------------------------------------------------------------|
| 
| D|-15~~-----------13-------12-------(8)-------------------------------------|
| A|---------------(17)----------------10---10~~------------------------------|
| F|--------------------------------------------------------------------------|
| C|--------------------------------------------------------------------------|
| G|--------------------------------------------------------------------------|
| C|--------------------------------------------------------------------------|
| 
| D|--------------------------------------------------------------------------|
| A|---------------(5)----------------5~~-------------------------------------|
| F|-5~~------------2~~--------------(5)--------------------------------------|
| C|--------------------------------------------------------------------------|
| G|--------------------------------------------------------------------------|
| C|--------------------------------------------------------------------------|
| 
| D|-15~~-----------13-------12-------(8)-------------------------------------|
| A|---------------(17)----------------10---10~~------------------------------|
| F|--------------------------------------------------------------------------|
| C|--------------------------------------------------------------------------|
| G|--------------------------------------------------------------------------|
| C|--------------------------------------------------------------------------|
|
|
| D|--------------------------------------------------------------------------|
| A|---------------(5)----------------5~~-------------------------------------|
| F|-5~~------------2~~--------------(5)--------------------------------------|
| C|--------------------------------------------------------------------------|
| G|--------------------------------------------------------------------------|
| C|--------------------------------------------------------------------------|
| 
| D|-15~~-----------13-------12-------(8)-------------------------------------|
| A|---------------(17)----------------10---10~~------------------------------|
| F|--------------------------------------------------------------------------|
| C|--------------------------------------------------------------------------|
| G|--------------------------------------------------------------------------|
| C|--------------------------------------------------------------------------|
| 
| D|--------------------------------------------------------------------------|
| A|---------------(5)----------------5~~-------------------------------------|
| F|-5~~------------2~~--------------(5)--------------------------------------|
| C|--------------------------------------------------------------------------|
| G|--------------------------------------------------------------------------|
| C|--------------------------------------------------------------------------|
| 
| D|-15~~-----------13-------12-------(8)-------------------------------------|
| A|---------------(17)----------------10---10~~------------------------------|
| F|--------------------------------------------------------------------------|
| C|--------------------------------------------------------------------------|
| G|--------------------------------------------------------------------------|
- C|--------------------------------------------------------------------------|


6:30

D|---------------------------------------------------------|
A|---------------------------------------------------------|
F|-15-15---15----15-15---15----15-15---15----15-15---15----|
C|-12-12---12----12-12---12----12-12---12----12-12---12----|
G|-13-13---13----13-13---13----13-13---13----13-13---13----|
C|-12-12---12----12-12---12----12-12---12----12-12---12----|

D|---------------------------------------------------------|
A|---------------------------------------------------------|
F|-15-15---15----15-15---15----15-15---15----15-15---15----|
C|-12-12---12----12-12---12----12-12---12----12-12---12----|
G|-13-13---13----13-13---13----13-13---13----13-13---13----|
C|-12-12---12----12-12---12----12-12---12----12-12---12----|


D|---------------------------------------------------------------------------|
A|---------------------------------------------------------------------------|
F|-2h3p2p0-2p0-2h3p2p0-2p0-2h3p2p0-2p0-2h3p2p0-2p0---------------------------|
C|---------------------------------------------------------------------------|
G|---------------------------------------------------------------------------|
C|---------------------------------------------------------------------------|
Harmony
D|---------------------------------------------------------------------------|
A|-------------------------5h7p5p0-5p0-5h7p5p0-5p0---------------------------|
F|---------------------------------------------------------------------------|
C|---------------------------------------------------------------------------|
G|---------------------------------------------------------------------------|
C|---------------------------------------------------------------------------|

D|---------------------------------------------------------|
A|---------------------------------------------------------|
F|-15-15---15----15-15---15----15-15---15----15-15---15----| . . . .
C|-12-12---12----12-12---12----12-12---12----12-12---12----|
G|-13-13---13----13-13---13----13-13---13----13-13---13----|
C|-12-12---12----12-12---12----12-12---12----12-12---12----|

D|---------------------------|
A|---------------------------|
F|-2h3p2p0-2p0-2h3p2p0-2p0---| X 7
C|---------------------------|
G|---------------------------|
C|---------------------------|

D|---------------------------------|
A|---------------------------------|
F|-b57777777777777777--------------|
C|---------------------------------|
G|---------------------------------|
C|---------------------0-00000-----|

-Rhythm 
| D|----------------------------------------------------------------------------------------------|
| A|----------------------------------------------------------------------------------------------|
| F|----------------------------------------------------------------------------------------------|
| C|----------------------------------------------------------------------------------------------|
| G|-2-2---2----2-2---2----3-3---3----3-3---3----7-7---7----7-7---7----8-8---8----8-8----8--------|
| C|-2-2---2----2-2---2----3-3---3----3-3---3----7-7---7----7-7---7----8-8---8----8-8----8--------|
| 
| D|------------------------------------------------------------------------|
| A|------------------------------------------------------------------------|
| F|-------------------------------------10---------------------------------|
| C|-------------------------------------10---------------------------------|
| G|-------------------------------------8----------------------------------|
- C|-2--2--2--2--3--3--3--3--7--7--7--7--8----------------------------------|

-Lead:
| D|---------------------------------------------------------------------------|
| A|-5~~-----------------------------------------------------------------------|
| F|----------------2~~----------------5~~-------------------------------------|
| C|---------------------------------------------------------------------------|
| G|---------------------------------------------------------------------------|
| C|---------------------------------------------------------------------------|
| 
| D|-13--13--13--13--24--24--24--24--20--20--20--20--20~~----------------------|
| A|---------------------------------------------------------------------------|
| F|---------------------------------------------------------------------------|
| C|---------------------------------------------------------------------------|
| G|---------------------------------------------------------------------------|
- C|---------------------------------------------------------------------------|
 


D|---------------------------------------------------------------------------|
A|---------------------------------------------------------------------------|
F|-10-------10-------10-------10-------10-------10-------10------------------|
C|-10-------10-------10-------10-------10-------10-------10------------------|
G|-8--------8--------8--------8--------8--------8--------8-------------------|
C|-8--------8--------8--------8--------8--------8--------8-------------------|

D|-8-8-8-8-8----8-8-8-8-8----8-8-8-8-8----8-8-8-8-8--------------------------|
A|-5-5-5-5-5----5-5-5-5-5----5-5-5-5-5----5-5-5-5-5--------------------------|
F|-5-5-5-5-5----5-5-5-5-5----5-5-5-5-5----5-5-5-5-5--------------------------|
C|-5-5-5-5-5----5-5-5-5-5----5-5-5-5-5----5-5-5-5-5--------------------------|
G|---------------------------------------------------------------------------|
C|---------------------------------------------------------------------------|

D|--------------------------|
A|--------------------------|
F|-10-10-10-10-10-10-10-10--|
C|-10-10-10-10-10-10-10-10--|
G|-8--8--8--8--8--8--8--8---|
C|-8--8--8--8--8--8--8--8---|

D|--------------------------|
A|--------------------------|
F|-10-10-10-10-10-10-10-10--|
C|-10-10-10-10-10-10-10-10--|
G|-8--8--8--8--8--8--8--8---|
C|-8--8--8--8--8--8--8--8---|

D|--------------------------|
A|--------------------------|
F|-10-10-10-10-10-10-10-10--|
C|-10-10-10-10-10-10-10-10--|
G|-8--8--8--8--8--8--8--8---|
C|-8--8--8--8--8--8--8--8---|

D|---------------------------------------------------------------------------|
A|---------------------------------------------------------------------------|
F|---------------------------------------------------------------------------|
C|----------3-3-3-------3-3-3------------------------------------------------|
G|-000--0---7-7-7---0---7-7-7---0--------------------------------------------|
C|-000--0-----------0-----------0--------------------------------------------|

Bass Break (one clean guitar is making noise in the back)
D|---------------------------------------------------------------------------|
A|---------------------------------------------------------------------------|
F|---------------------------------------------------------------------------|
C|---------------------------------------------------------------------------|
G|---------------------------------------------------------------------------|
C|-0-0-0-0-0-0-0-0-0-0-0-0-0-0-0-0-0-0-0-0-0-0-0-0-0-0-0-0-------------------|


D|---------------------------------------------------------------------------|
A|---------------------------------------------------------------------------|
F|---------------------------------------------------------------------------|
C|----------3-3-3-----3-3-3-----------------------3--------------------------|
G|-333-0-0--7-7-7--0--7-7-7--0-333-222-0-0-333-0--7--------------------------|
C|-333-0-0---------0---------0-333-222-0-0-333-0-----------------------------|


7:50

D|---------------------------------------------------------------------------|
A|----------13-13-13----------13-13-13-------------13-13-13------------------|
F|-10-10-10----------10-10-10----------10-10-9-9-9----------9-9--------------|
C|---------------------------------------------------------------------------|
G|---------------------------------------------------------------------------|
C|---------------------------------------------------------------------------|

D|---------------------------------------------------------------------------|
A|----------13-13-13----------13-13-13-------------13-13-13------------------|
F|-10-10-10----------10-10-10----------10-10-9-9-9----------9-9--------------|
C|---------------------------------------------------------------------------|
G|---------------------------------------------------------------------------|
C|---------------------------------------------------------------------------|

D|---------------------------------------------------------------------------|
A|----------13-13-13----------13-13-13-------------13-13-13------------------|
F|-10-10-10----------10-10-10----------10-10-9-9-9----------9-9--------------|
C|---------------------------------------------------------------------------|
G|---------------------------------------------------------------------------|
C|---------------------------------------------------------------------------|

D|---------------------------------------------------------------------------|
A|----------13-13-13----------13-13-13-------------13-13-13------------------|
F|-10-10-10----------10-10-10----------10-10-9-9-9----------9-9--------------|
C|---------------------------------------------------------------------------|
G|---------------------------------------------------------------------------|
C|---------------------------------------------------------------------------|

D|------------------------------------|
A|------------------------------------|
F|------------------------------------|
C|--------------------3---------------|
G|-333-222-0-0-333-0--7---------------|
C|-333-222-0-0-333-0------------------|


D|---------------------------------------------------------------------|
A|---------------------------------------------------------------------|
F|---------------------------------------------------------------------|
C|--------3-3-3-----3-3-3-----------3-3-3-----3-3-3-----------3-3-3----|
G|-000-0--7-7-7--0--7-7-7--000-0-0--7-7-7--0--7-7-7--0-000-0--7-7-7--0-|
C|-000-0---------0---------000-0-0---------0---------0-000-0---------0-|

---------------------------------------------------------|
---------------------------------------------------------|
---------------------------------------------------------|
-3-3-3-----------3-3-3-----3-3-3-------------------------|
-7-7-7--000-0-0--7-7-7--0--7-7-7--0-333-0--------3-0-----|
--------000-0-0---------0---------0-333-0--------3-0-----|


8:21 Heavy Part

-Left Guitar:
| D|--------13-13-13-----13-13-13-----------13-13-13-----13-13-13----------|
| A|--------17-17-17-----17-17-17-----------17-17-17-----17-17-17----------|
| F|-----------------------------------------------------------------------|
| C|-----------------------------------------------------------------------|
| G|-000-0------------0------------000-0-0------------0------------0-000-0-|
| C|-000-0------------0------------000-0-0------------0------------0-000-0-|

-13-13-13-----13-13-13-----------13-13-13-----13-13-13------|
-17-17-17-----17-17-17-----------17-17-17-----17-17-17------|
------------------------------------------------------------| X 2
------------------------------------------------------------|
-----------0------------000-0-0------------0------------0---|
-----------0------------000-0-0------------0------------0---|

| 
| D|--------13-13-13-----13-13-13-----------------------------------------------|
| A|--------17-17-17-----17-17-17-----------------------------------------------|
| F|----------------------------------------------------------------------------|
| C|------------------------------------------------------3-----------3---------|
| G|-000-0------------0------------333-222-0-0-333-222-0--7--000-0-0--7---------|
- C|-000-0------------0------------333-222-0-0-333-222-0-----000-0-0------------|


-Right Guitar:
| D|------------------------------------------------------------------|
| A|------------------------------------------------------------------|
| F|------------------------------------------------------------------|
| C|--------3-3-3-----3-3-3-----------3-3-3-----3-3-3-----------3-3-3-|
| G|-000-0--7-7-7--0--7-7-7--000-0-0--7-7-7--0--7-7-7--0-000-0--7-7-7-|
| C|-000-0---------0---------000-0-0---------0---------0-000-0--------|

-----------------------------------------|
-----------------------------------------|
-----------------------------------------| X 2
----3-3-3-----------3-3-3-----3-3-3------| 
-0--7-7-7--000-0-0--7-7-7--0--7-7-7--0---|
-0---------000-0-0---------0---------0---|

| 
| D|---------------------------------------------------------------------------|
| A|---------------------------------------------------------------------------|
| F|---------------------------------------------------------------------------|
| C|--------3-3-3-----3-3-3-------------------------3-----------3--------------|
| G|-000-0--7-7-7--0--7-7-7--333-222-0-0-333-222-0--7--000-0-0--7--------------|
- C|-000-0---------0---------333-222-0-0-333-222-0-----000-0-0-----------------|


8:43 BREAKDOWN
   .   .   .   .   .   .   .   .   .   .   .   .   .   .   .   .   .   .   .   
D|-----------------------------------------------------------------------------|
A|-----------------------------------------------------------------------------|
F|-----------------------------------------------------------------------------|
C|-----------------------------------------------------------------------------|
G|-000-0-------0-------000-0-0-------0-------0-000-0-------0-------000-0-0-----|
C|-000-0-------0-------000-0-0-------0-------0-000-0-------0-------000-0-0-----|

   .   .   .   .   .   .   .   .   .   .   .   .   .   .   .   .   .   .   .   .   .   
D|-------------------------------------------------------------------------------------|
A|-------------------------------------------------------------------------------------|
F|-------------------------------------------------------------------------------------|
C|-------------------------------------------------------------------------------------|
G|---0-------0-000-0-------0-------000-0-0-------0-------0-000-0-------0-------000-0-0-|
C|---0-------0-000-0-------0-------000-0-0-------0-------0-000-0-------0-------000-0-0-|
   .   .   .   .   .   
D|---------------------------------------------------------------------------|
A|---------------------------------------------------------------------------|
F|---------------------------------------------------------------------------|
C|---------------------------------------------------------------------------|
G|---0-------0-000-0---------------------------------------------------------|
C|---0-------0-000-0---------------------------------------------------------|


Phew... long song

************************************

| /   slide up
| \   slide down
| h   hammer-on
| p   pull-off
| ~   vibrato
| *   harmonic
| x   Mute note
| b   Bend
| pb  Pre-bend
| br  Bend release
| pbr Pre-bend release
| brb Bend release bend

************************************
Добавлено: 30.09.2013
Вам также может быть интересно:
Другие материалы по этой песне:
  • Аккорды и текст

Страница создана 30.09.2013
http://primanota.ru/irepress/nonografistole-adendum-chords.htm
Привет, Гость.
Предлагаем пройти революционный курс по гитаре.
Подарок от PrimaNota.Ru, забирай!