PrimaNota.ru - самый крупный в мире бесплатный архив песенных текстов, аккордов, табулатур и нот


Iq - You Never Will - текст песни, таба, видео

Регистрация Запомнить меня
Войти через:  Facebook Google Twitter Vk Yandex Mail.ru

Iq - You Never Will - текст песни, таба, видео

Печатать
Просмотров: 112
                                          Artist - IQ
                                         *************
                                     Song - You Never Will
                                    ***********************     
                                      Album - Dark Matter
                                     *********************



INTRO - CLOCKS
***************

VERSE 1
********
F#
In moods of don't disturb,I'm on edge and then
Afraid, I call for answers again and again
C#
I keep on hoping that you'll do something real
Accept the consequence but you never will


VERSE 2
********
F#
I may have squandered it but what do I know 
There's one good God above us, bad God below
C#
I keep on hoping you'll remember me still
Admit I wasn't wrong but you never will
 

CHORUS
*******  
            F# E        B        F#       D       E
And there's no way in a place of illusion pale as glass
F#  E   B            F#         D         E
One day one thing is sure  this too shall pass
F#   E     B           F#      D    E
I'll stay, waiting the longest time Until
F#  E        B
you come but you never will


VERSE 3
********
F#
Now as the shadows fall on Allhallows Eve
We spin our tangled web, learn to deceive
C#
I keep on hoping that you'll do something real
Give in to influence but you never will


CHORUS
*******
            F# E        B        F#          D    F#
And there's no way, any time any place we'll meet again
F#  E        B       F#      D         F#
One day with eternal evasion this will end
F#   E     B           F#      D    E
I'll stay, waiting the longest time Until 
F#  E        B
you come but you never will


KEYBOARD SOLO 1
****************
F# D F C X4

KEYBOARD SOLO 2
****************
C# F# C#


VERSE 4
********
F#
This kind of living death is made in the mind
I find with these restrictions, I'm more deaf than blind
C#
No matter where I look, I'm under attack
Whichever road I took, I always came back



GUITAR SOLO
************
[---------------------------|---------|------------------------]
[---------p-----------------|---------|------------------------]
[--14---14-13---------------|--13-11--|--10-11-13-11-10--------]
[--------------16-14----14--|---------|-----------------13-11--]
[--------------------16-----|---------|------------------------]
[---------------------------|---------|------------------------]


[----------p--------------------|------------|------------]
[----p---17-14---p--------------|---brp------|----h-------]
[--14-13-------14-13------------|--11--9-11--|--10-11-13--]
[---------------------16-14-----|------------|------------]
[---------------------------16--|------------|------------]
[-------------------------------|------------|------------]

                                          UB
[---------------------------------------------|--------------------]
[----p-----h----b-rp------p------h--------09--|----p-----p---------]
[--14-13-14-16-16---14--16-14--13-14--13--11--|--11-10-11-10----s--]
[---------------------------------------------|--------------11-\--]
[---------------------------------------------|--------------------]
[---------------------------------------------|--------------------]


[----------------------------------|-----------------]
[---------p---------------------b--|---brp--------s--]
[--14---14-13--------------13--16--|--16--14--16--\--]
[--------------16-14----14---------|-----------------]
[--------------------16------------|-----------------]
[----------------------------------|-----------------]


CHORUS
*******  
            F# E        B        F#       D       E
And there's no way in a place of illusion pale as glass
F#  E   B            F#         D         E
One day one thing is sure  this too shall pass
F#   E     B           F#      D    E
I'll stay, waiting the longest time Until
F#  E        B
you come but you never will

Добавлено: 30.10.2013
Другие материалы по этой песне:
  • Аккорды и текст

Страница создана 30.10.2013
http://primanota.ru/iq/you-never-will-chords.htm
Привет, Гость.
Предлагаем пройти революционный курс по гитаре.
Подарок от PrimaNota.Ru, забирай!