PrimaNota.ru - самый крупный в мире бесплатный архив песенных текстов, аккордов, табулатур и нот


Iq - Came Down - текст песни, таба, видео

Регистрация Запомнить меня
Войти через:  Facebook Google Twitter Vk Yandex Mail.ru

Iq - Came Down - текст песни, таба, видео

Печатать
Просмотров: 104
Авторы: IQ
Авторы текста: Peter Nicholls
                                         Artist - IQ
                                        *************
                                       Song - Came Down
                                      ******************
                                         Album - Ever
                                        **************
 h = hammer on
 p = pull off
 s = slide
br = bend reverse                                       
rb = reverse bend


00:02
[---------------------------|---h-------------p-----------------]
[----------h-s-----h--------|--9-10-12-10-9-10-9----------------]
[--8-9----8-9\11-11-13-9----|--------------------9--------------]
[------------------------9--|----------------------9--11-9-9-9--]
[---------------------------|-----------------------------------]
[---------------------------|-----------------------------------]


[---------------------------|---h-------------p----------------------]
[----------h-s-----h--------|--9-10-12-10-9-10-9---------------------]
[--8-9----8-9\11-11-13-9----|--------------------9---------8-9----9--]
[------------------------9--|----------------------9--11-9-----------]
[---------------------------|----------------------------------------]
[---------------------------|----------------------------------------]

Vocals 00:35
************
Dbm      Abm           A         E
 All the memories that led to isolation
Dbm      Abm            E
 All the time we didn't share
Dbm      Abm        A              E
 When we set adrift half-forgotten lies
F#m       B                D
 Will the madness still be there

00:41                   00:55
[----s--s----|---b-r---|----------------------------]
[--12\14/12--|--12--9--|---------9---------12---rb--]
[------------|---------|------------------------11--]
[---Slide----|---------|--9-11-9----9-11-9----------]
[------------|---------|----------------------------]
[------------|---------|----------------------------]

01:03
[-------|-------|---------|------------]
[-------|-------|---------|------------]
[-------|-------|---h-----|------s-----]
[-------|--4----|--4-6----|----6-\9-9--]
[--6-7--|----2--|------6--|--7---------]
[-------|-------|---------|------------]


Vocals 01:18
************
Dbm     Abm              A                 E
 Who of all you now will ride the lows and highs
Dbm              Abm                E
 Whose hands are these that come to pray
Dbm       Abm           A           E
 When you turn away the distance in your eyes
F#m         B                    D
 Speaks the words that you won't say

 E            Dbm     A       
 Far away, we say goodbye
 E        A            Dbm                 A
 Too many unremembered arms that won't let go
 E            Dbm     A
 How can I be on your side

Abm     A    
 If the line divides
B          A
 And if anyone should listen
Abm            A
 Though starry-eyed, I know
B                  Dbm
 This is still the garden
         E
 Where I came down

01:26               01:41
[---b-r-|---br------|----------------------------]
[--12---|--12--9----|---------9---------12---rb--]
[-------|--------9--|------------------------11--]
[-------|-----------|--9-11-9----9-11-9----------]
[-------|-----------|----------------------------]
[-------|-----------|----------------------------]

*********************************************************************

Section 1 - Chords Picking
***************************
01:49
            E                 Dbm            A             E
[-------7--------7------|------4------|------5------|------7------]
[---------9--------9----|--------5----|--------5----|--------9----]
[----9---------9-----9--|----6-----6--|----6-----6--|----9-----9--]
[--9---------9----------|--6----------|--7----------|--9----------]
[-----------------------|-------------|-------------|-------------]
[-----------------------|-------------|-------------|-------------]

       A            Dbm            A
[------5------|------4------|------5------]
[--------5----|--------5----|--------5----]
[----6-----6--|----6-----6--|----6-----6--]
[--7----------|--6----------|--7----------]
[-------------|-------------|-------------]
[-------------|-------------|-------------]

            E                Dbm            A           
[------7--------7------|------4------|------5------]
[--------9--------9----|--------5----|--------5----]
[----9--------9-----9--|----6-----6--|----6-----6--]
[--9--------9----------|--6----------|--7----------]
[----------------------|-------------|-------------]
[----------------------|-------------|-------------]

       Abm          A           B           A
[-------4----|------5----|------7----|------5----]
[---------4--|--------5--|--------7--|--------5--]
[----4-------|----6------|----8------|----6------]
[--6---------|--7--------|--9--------|--7--------]
[------------|-----------|-----------|-----------]
[------------|-----------|-----------|-----------]


       Abm          A           B          Dbm      E
[-------4----|------5----|------7----|------4----|--0--]
[---------4--|--------5--|--------7--|--------4--|--0--]
[----4-------|----6------|----8------|----6------|--1--]
[--6---------|--7--------|--9--------|--6--------|--2--]
[------------|-----------|-----------|-----------|--2--]
[------------|-----------|-----------|-----------|--0--]

****************************************************************
02:10
[-----------------9------11-12--------|--------------------]
[--12---10-9----9----12--------12-10--|--10-9--------------]
[------------11-----------------------|-------11-9----8-9--]
[-------------------------------------|--------------------]
[-------------------------------------|--------------------]
[-------------------------------------|--------------------]

*****************************************************************
Solo 1
*******
02:29                                       Extremley Fast Piece
[---h----10---s---------|---h----10---s----|--10--7--h----h-p---------]
[--7-8------10\12--8----|--7-8------10\12--|----10--7-8--7-8-7--p-h---]
[------7-------------7--|------7-----------|-------------------9-7-9--]
[-----------------------|------------------|--------------------------]
[-----------------------|------------------|--------------------------]
[-----------------------|------------------|--------------------------]


[---h----7----h-------|---h----7----h--s---]
[--7-9-----7-7-9------|--7-9-----7-7-9-\7--]
[------9---------9----|------9-------------]repeat 
[------------------9--|--------------------] all
[---------------------|--------------------]  X2
[---------------------|--------------------]


[-------br--------------]
[--7---7---5-4-5--------]
[------------------s----]
[-----------------9\11--]
[-----------------------]
[-----------------------]

Vocals 03:02
************
Dbm      Abm         A                    E
 Holding faster than before for what it's worth now
Dbm              Abm             E
 Those days that none will see replaced
Dbm    Abm         A              E
 What became of us mysterious and ageless
F#m     B             D
    We left without a trace

 E            Dbm      A
 Far away, we wave goodbye
 E        A            Dbm                 A
 Too many unremembered arms that won't let go
 E            Dbm     A
 How can I be on your side

Abm     A    
 If the line divides
B          A
 And if anyone should listen
Abm            A
 Though starry-eyed, I know
B                  Dbm
 This is still the garden
         E
 Where I came down

03:09                 03:24
[----b-r--|---br------|-----------------------------]
[--12-----|--12--9----|---------9---------12----br--]
[---------|--------9--|------------------------11---]
[---------|-----------|--9-11-9----9-11-9-----------]
[---------|-----------|-----------------------------]
[---------|-----------|-----------------------------]

Chords Picking 03:31
Repeat Section 1 
*****************

**************************************************************
03:53
[-----------------9------11-12--------|-------------]
[--12---10-9----9----12--------12-10--|--10-9-------]
[------------11-----------------------|-------11-9--]
[-------------------------------------|-------------]
[-------------------------------------|-------------]
[-------------------------------------|-------------]

**************************************************************

04:07
[---------------------------|---h-------------p-----------------]
[----------h-s-----h--------|--9-10-12-10-9-10-9----------------]
[--8-9----8-9\11-11-13-9----|--------------------9---------8-9--]
[------------------------9--|----------------------9--11-9------]X2
[---------------------------|-----------------------------------]
[---------------------------|-----------------------------------]

Solo 2
*******
Continued from the last 2 note you have just played
  04:33                         p
[--------------------------|--14-12------------|-------------p-------]
[-------s-------s---14-12--|--------12---------|-----12----14-12-----]
[--8-9--\11-9-11\13--------|-----------13--11--|---------------------]
[--------------------------|-------------------|--14----14-------14--]
[--------------------------|-------------------|---------------------]
[--------------------------|-------------------|---------------------]

04:46
     p                            s                    h  p
[--12-11----h----------------|--16\12------------h---12-14-12--------]
[---------12-14---h---12-----|--------12---h---12-14----------12-12--]
[---------------13-14----13--|-----------11-13-----------------------]
[----------------------------|---------------------------------------]
[----------------------------|---------------------------------------]
[----------------------------|---------------------------------------]


[------p---------------p-------h--p--------|--11-11------------------------]
[--9-10-9--------12--10-9-----9-10-9-------|--------12-14-9----9---12-10-9-]
[---------11-------------------------11-9--|----------------11---9---------]
[------------9-9----------9-9--------------|-------------------------------]
[------------------------------------------|-------------------------------]
[------------------------------------------|-------------------------------]

05:04               s                 s
[-----------s----|--\19-16-12-14----12\-7--|---h--h---9-12------]
[--12-12-12-\----|---------------12--------|--9-10-12-------12--]
[-------------9--|-------------------------|--------------------]
[----------------|-------------------------|--------------------]
[----------------|-------------------------|--------------------]
[----------------|-------------------------|--------------------]

05:12
[----p----------------p----p---p--------9--------|---h--p-h--p--------]
[--10-9----------h---9-7-10-9-9-7-----9---12--9--|--9-10-9-10-9---12--]
[-------11--h---9-11--------------9--------------|--------------9-----]
[----------9-11---------------------9------------|--------------------]
[------------------------------------------------|--------------------]
[------------------------------------------------|--------------------]

05:23
[--br--------|-------------s---12-11----------------------------]
[--9--7------|-----------12\14-------------12--------s---12-----]
[-------9----|--14-11-14-------------13-11----13-9--9\11----13--]
[---------9--|--------------------------------------------------]
[------------|--------------------------------------------------]
[------------|--------------------------------------------------]

05:35
     h  p               p        s
[--12-14-12----16--|--16-14----12\14-----|----p------h---14-------16--]
[-----------12-----|--------14-------12--|--10-9----9-10------s-------]
[------------------|---------------------|-------11---------11\13-----]
[------------------|---------------------|----------------------------]
[------------------|---------------------|----------------------------]
[------------------|---------------------|----------------------------]

05:43
[--12-------s----s---------------------------------11-12------------]
[-----12-9-9\7--7\9----12-9--------12-9------14-12-------9----12----]
[---------------------------9-11--------9-11---------------11----9--]
[-------------------9------------9----------------------------------]
[-------------------------------------------------------------------]
[-------------------------------------------------------------------]

Great tune.... Enjoy
Добавлено: 16.10.2013
Другие материалы по этой песне:
  • Аккорды и текст

Страница создана 26.03.2012
http://primanota.ru/iq/came-down-chords.htm
Привет, Гость.
Предлагаем пройти революционный курс по гитаре.
Подарок от PrimaNota.Ru, забирай!