PrimaNota.ru - самый крупный в мире бесплатный архив песенных текстов, аккордов, табулатур и нот


Ipang - Tentang Cinta - таба, видео

Регистрация Запомнить меня
Войти через:  Facebook Google Twitter Vk Yandex Mail.ru

Ipang - Tentang Cinta - таба, видео

Печатать
Просмотров: 108
Уроки эстрадного вокала в Санкт-Петербурге
e|-------------------------------------------------------------------------------|
B|-----------------7-7-8---------------------------------------------------------|
G|-----7-----------------7-------------------------------------------------------|
D|--/5-----9p7-9-------------9-9-7-/9---7p5-4-5-4--------------------------------|
A|------------------------------------------------5------------------------------|
E|-------------------------------------------------------------------------------|

e|------------------------------------------------5-7-8p7-5-7--10--8--8p7----7---|
B|----------------------------------5h7p5---5-7-8-------------------------10-----|
G|--------------------4h5p4---4-5-7-------7--------------------------------------|
D|------4h5p4---4-5-7-------7----------------------------------------------------|
A|--5-7-------7------------------------------------------------------------------|
E|-------------------------------------------------------------------------------|

e|--8p7----7----------------------------------------------|
B|------10----10-8-7---8p7-----------------10-10-10--8-7-8|
G|-------------------9-----9-7-9p7---7-9------------------|
D|---------------------------------9----------------------|
A|--------------------------------------------------------|
E|--------------------------------------------------------|

------------------------------------------------------|
---7-----------------------8---10-10/12\10-8-7-8p7----|
-9---7-9---7-----------7-----9---------------------9--|
---------9---7-9---7-9---9----------------------------|
-----------------9------------------------------------|
------------------------------------------------------|


e|----------------------------------------------------|
B|----/8-7-5---/7--5-5-------5------/8-7-/10-8-7------|
G|--4--------7---------7-4-7------4--------------7-5--|
D|----------------------------------------------------|
A|----------------------------------------------------|
E|----------------------------------------------------|
Добавлено: 11.02.2014
Другие материалы по этой песне:

Страница создана 11.02.2014
http://primanota.ru/ipang/tentang-cinta-chords.htm
Привет, Гость.
Предлагаем пройти революционный курс по гитаре.
Подарок от PrimaNota.Ru, забирай!