PrimaNota.ru - самый крупный в мире бесплатный архив песенных текстов, аккордов, табулатур и нот


Iona - Heavens Bright Sun - таба, видео

Регистрация Запомнить меня
Войти через:  Facebook Google Twitter Vk Yandex Mail.ru

Iona - Heavens Bright Sun - таба, видео

Печатать
Просмотров: 84
		   Author/Artist: Iona
Title: Heaven's Bright Sun
Album: Journey Into The Morn
Transcribed by: Jason Williams
Email: djwilliams@mindspring.com

This is the pipe/guitar solo for this great song.  Here are a
few notes about it, The song is one big cycle, after you 
finish the first cycle, play it again but this time use the
section 2(refrain) in place of the regular section 2 for the
remainder of the cycles you play. The trill inflections
have been omitted, just use your own feeling to give 
it that pipe/hammer on sound.
Standard Tuning Low ( E A D G B E) High

-------------------------1212----1212-----------------------------------------
-131313--12--10------10-------13-------131313--12--10----10-----10------------
-----------------12-----------------------------------12-----99----77---------
------------------------------------------------------------------------------
------------------------------------------------------------------------------
------------------------------------------------------------------------------
                                                                              

-----------------------1212----1212---------------------------------12--------
-131313--12--10----10-------13--------131313--12--10-----13--1010------1010---
----------------12-----------------------------------12-----------------------
------------------------------------------------------------------------------
------------------------------------------------------------------------------
------------------------------------------------------------------------------
   section 2                                                                  

------------------------------------------------------------------------------
-171717--15-13------171717--18-17-15--171717--15--13-----13--------10---------
---------------14------------------------------------14--------99------77-----
------------------------------------------------------------------------------
------------------------------------------------------------------------------
------------------------------------------------------------------------------
                                                                              

----------------------------------------------------------------------15------
-171717--15--13------171717--18--17--15--171717--15--13------17---------------
-----------------14--------------------------------------14------1414---------
------------------------------------------------------------------------------
------------------------------------------------------------------------------
------------------------------------------------------------------------------
        section 3                                                             

---------17-----------------------------------17-------------15-------15------
------------15--17--15-14-------17-15-14---------15-17-15-14----15-14----14---
-1414----------------------14-------------14----------------------------------
------------------------------------------------------------------------------
------------------------------------------------------------------------------
------------------------------------------------------------------------------
                                                                              

------17/19/17-------------------------------------------12-------------------
-15------------15-17-15-14---------13--1010--------1010-------1010-----101213-
---------------------------14---12------------12--------------------12--------
------------------------------------------------------------------------------
------------------------------------------------------------------------------
------------------------------------------------------------------------------
 End of sequence, now repeat from top but use the refrain below from now on   

----------------------------------------------17------------------------------
-171717-15-13------171717-18-17-15-13--171717----15-13----15-13---------------
--------------14---------------------------------------14--------14--12-1414--
------------------------------------------------------------------------------
------------------------------------------------------------------------------
------------------------------------------------------------------------------
                                                                              

-----------------------------------------------------------------15-------17--
-171717-15-13-----171717-18-17-15-13--171717-15-13-----17---------------------
--------------14-----------------------------------14------1414------1414-----
------------------------------------------------------------------------------
------------------------------------------------------------------------------
------------------------------------------------------------------------------
            Go to Section 3 , now repeat song                                 

     
Добавлено: 25.07.2013
Другие материалы по этой песне:
  • Аккорды и текст

Страница создана 25.07.2013
http://primanota.ru/iona/heavens-bright-sun-chords.htm
Привет, Гость.
Предлагаем пройти революционный курс по гитаре.
Подарок от PrimaNota.Ru, забирай!