PrimaNota.ru - самый крупный в мире бесплатный архив песенных текстов, аккордов, табулатур и нот


Iona - Flight Of The Wild Goose - таба, видео

Регистрация Запомнить меня
Войти через:  Facebook Google Twitter Vk Yandex Mail.ru

Iona - Flight Of The Wild Goose - таба, видео

Печатать
Просмотров: 107
		   Author/Artist: Iona
Title: Flight of the Wild Goose
Album: Heaven's Bright Sun
Transcribed by: Jason Williams
Email: djwilliams@mindspring.com

This is transcribed from the live album.  I have only (at 
this point) done the pipe/guitar melody lines.  It's not
a hard song at all, but play close attention in the song 
for the hammer on and trill notes to give it that true pipe 
sound.  If you listen to Dave Bainbridges guitar he is 
also doing pipe/hammer ons himself.  More of this song
to be transcribed in the future STAY TUNED!!!
Standard Tuning Low(E A D G B E) High

------------10--10------------------------------------------------------------
-10--12--13--------13--12--10-----------10/12--10--8------------10--12--10----
---------------------------------1212-----------------9/7/9--9----------------
------------------------------------------------------------------------------
------------------------------------------------------------------------------
------------------------------------------------------------------------------
                                                                              

--------------------10--10---------------12/10-------12--141514--12-----12----
--------10--12--13----------13--12--10------------12----------------15--------
-1212-------------------------------------------------------------------------
------------------------------------------------------------------------------
------------------------------------------------------------------------------
------------------------------------------------------------------------------
                           Chorus section(repeat 4 times)                     

-12/14/12-10------------------10/12/10------10/12/10-----12-------------------
-------------10/12/10------------------12-------------12----10--10/12-10-12---
------------------------------------------------------------------------------
------------------------------------------------------------------------------
------------------------------------------------------------------------------
------------------------------------------------------------------------------
                                                                              

------------------------------------------------------------------------------
-8-10-------------------------------------------------------------------------
------------------------------------------------------------------------------
------------------------------------------------------------------------------
------------------------------------------------------------------------------
------------------------------------------------------------------------------
 Guitar Solo (Not complete solo, I'm still working on it)                     

-17-15--15-14-----------------------------------------------------------------
--------------17-15-17-15------------------------------15-13-12-15-15-13------
--------------------------16b-16--12-14--16-14-12-11--------------------------
------------------------------------------------------------------------------
------------------------------------------------------------------------------
------------------------------------------------------------------------------
                                                                              

------------------------------------------------------------------------------
-15/17/15-14-15-14-12---------------------------------------------------------
----------------------15----12/13/12--10--------------------------------------
-------------------------11---------------------------------------------------
------------------------------------------------------------------------------
------------------------------------------------------------------------------
                                                                              

     
Добавлено: 30.11.2013
Вам также может быть интересно:
Другие материалы по этой песне:
  • Аккорды и текст

Страница создана 30.11.2013
http://primanota.ru/iona/flight-of-the-wild-goose-chords.htm
Привет, Гость.
Предлагаем пройти революционный курс по гитаре.
Подарок от PrimaNota.Ru, забирай!