PrimaNota.ru - самый крупный в мире бесплатный архив песенных текстов, аккордов, табулатур и нот


Иоганнес Брамс - Венгерский танец №5 в F#m - аккорды и текст, видео

Регистрация Запомнить меня
Войти через:  Facebook Google Twitter Vk Yandex Mail.ru

Иоганнес Брамс - Венгерский танец №5 в F#m - аккорды и текст, видео

Печатать
Просмотров: 98
Венгерский танец №5 в F#m
Иоганнес Брамс
Allegro
E|---------------|----------------|-----------------|----------|
B|---------------|-1--------------|-----------------|----------|
G|-------------2-|-------------2--|-1-----------2^4-|-2--------|
D|-2-------------|----------------|--------0--------|----------|
A|-0------3------|-0------3-------|-0---------------|-0------3-|
E|---------------|----------------|-----------------|----------|
 
E|-----------------|-------------|-----------------|-----------|
B|-----------------|-------------|-----------------|-----------|
G|-------------0^2-|-------------|-----------------|-----------|
D|-3---------------|-2-----------|---------------2-|-----------|
A|-0------5--------|-0------3----|-5^3-3^2-2-------|-0-------3-|
E|-----------------|-------------|-0-------4-------|-----------|

E|-----------------|-0-------------|-----------------|---------|
B|---------------1-|-------------1-|-0-----------1^3-|-1-------|
G|-------------2---|-------------2-|-1-----------2^4-|-2-------|
D|-2---------------|---------------|--------0--------|---------|
A|-0------3--------|-0------3------|-0---------------|-0-----3-|
E|-----------------|---------------|-----------------|---------|

E|-----5-------3---|---0-1-------0---|---------------0-|-----5-|
B|-6-8---6-5-6---5-|-3-----3-1-3---1-|-3^1-1^0-0-------|-1---5-|
G|-----5---0---4---|-----2-------2---|-----1-------1---|-2---5-|
D|-7---------------|-3-------2-------|-2-------2-------|-----7-|
A|-----------------|-----------------|-----------------|-------|
E|-----------------|-----------------|-----------------|-----5-|

E|-----------------|-----------------|-----------------|
B|-5-------5-------|-6-----------5---|-5---3-------2^3-|
G|----------------|-----------------|-----------------|
D|----5-------5---|-----5-------5---|-----3-------3---|
A|-4-------0-------|-4-------0-------|-5-------0-------|
E|-----------------|-----------------|-----------------|

E|---------------|-----------------|-0---------------|
B|-5^3-2^5-3-----|-3-------3-------|-------------3---|
G|---------------|-----------------|-----------------|
D|-0---3-------3-|-----3-------3---|-----3-------3---|
A|---------0-----|-2---------------|-2---------------|
E|---------------|---------3-------|---------3-------|

E|-----------------|---------------|-----------------|
B|-3---1-------0^1-|-3^1-0^3-1-----|-0-------0-------|
G|-----------------|---------------|-----------------|
D|-----2-------2---|-----2-------2-|-----2-------2---|
A|-3---------------|-3-------------|-----------------|
E|---------3-------|---------3-----|-4-------0-------|

E|-----------------|-----------------|-----------------|
B|-1-----------0---|-0---------------|-----------------|
G|-----------------|-----2-------1^2-|-4^2-1^2-4^2-1^2-|
D|-----2-------2---|-----3-----------|-3-------0---3---|
A|-----------------|---------3---0---|-----0-----------|
E|-4-------0-------|-1---------------|-----------------|

E|-0---------------|-----------------|------------------|
B|-----------------|-----------------|------------------|
G|-1-----------1---|-2---2---1^2-4^2-|-1^4-2----------@-|
D|-2-----2-3-------|-----2-----------|----------------@-|
A|-----------------|-0---3---0-------|-----3------------|
E|-0-----0-1---4---|-----5-------4---|-0---5------------|

E|---------------|----------------|-----------------|----------|
B|---------------|-1--------------|-----------------|----------|
G|-------------2-|-------------2--|-1-----------2^4-|-2--------|
D|-2-------------|----------------|--------0--------|----------|
A|-0------3------|-0------3-------|-0---------------|-0------3-|
E|---------------|----------------|-----------------|----------|

E|-----------------|-------------|-----------------|-----------|
B|-----------------|-------------|-----------------|-----------|
G|-------------0^2-|-------------|-----------------|-----------|
D|-3---------------|-2-----------|---------------2-|-----------|
A|-0------5--------|-0------3----|-5^3-3^2-2-------|-0-------3-|
E|-----------------|-------------|-0-------4-------|-----------|

E|-----------------|-0-------------|-----------------|---------|
B|---------------1-|-------------1-|-0-----------1^3-|-1-------|
G|-------------2---|-------------2-|-1-----------2^4-|-2-------|
D|-2---------------|---------------|--------0--------|---------|
A|-0------3--------|-0------3------|-0---------------|-0-----3-|
E|-----------------|---------------|-----------------|---------|

E|-----5-------3---|---0-1-------0---|---------------0-|-----5-|
B|-6-8---6-5-6---5-|-3-----3-1-3---1-|-3^1-1^0-0-------|-1---5-|
G|-----5---0---4---|-----2-------2---|-----1-------1---|-2---5-|
D|-7---------------|-3-------2-------|-2-------2-------|-----7-|
A|-----------------|-----------------|-----------------|-------|
E|-----------------|-----------------|-----------------|-----5-|
Добавлено: 26.12.2015
Другие материалы по этой песне:
  • Аккорды и текст

Страница создана 26.12.2015
http://primanota.ru/iogannes-brams/vengerskii-tanec-n5-v-fm-chords.htm
Привет, Гость.
Предлагаем пройти революционный курс по гитаре.
Подарок от PrimaNota.Ru, забирай!